Guitar Tabs, Chords and Lyrics


Happiness By the Kilowatt    Alexisonfire



happines by the kilowatt
by Alexisonfire

standard tuning

you can figure out the rythem by yourself, its not hard

		Guitar 1

	intro (each chord 1 bar)

------------------------
------------------------
--4------3------6----4--
------------------------
--2------1------4----2--
------------------------

----------------------
----------------------
---8------------------
----------------------
---6------------------
----------------------

------------------------------
----0---------------0---------
------3---------------3-------
--------4--6------------4--2--
------------------------------
------------------------------


	verse (each run 4 times)

-----------|-------------
--04444405-|-04444405040-
-----------|-------------
-----------|-------------
-----------|-------------
-----------|-------------

	chorus ( each chord is 4 bars)

----------------------
----------------------
----------------------
----6-----------2-----
----6-----------2-----
----4-----------0-----

	bridge (each chord is one bar)

--------------------
--------------------
--------------------
--4----4----4----4--
--6----6----6----6--
--4----4----4----4--

-------------------
-------------------
-------------------
-----9-------------
-----9-------------
-----7-------------
	
------------------
------------------
------------------
------------------
------------------
------------------

_________________________________________________________

		Guitar 2
	
	intro (one bar repeats)
------------------------
------------------------
------------------------
--26-2-2-66662-26-26----
--26-2-2-66662-26-26----
--04-0-0-44440-04-04----

	(same as verse)
-----------------
-----------------
-----------------
---6--------2----
---6--------2----
---4--------0----

	verse ( 4 bars a chord)
     (play lightly)

-----------------
-----------------
-----------------
---6--------2----
---6--------2----
---4--------0----

	chorus ( each chord is 4 bars)

----------------------
----------------------
----------------------
----6-----------2-----
----6-----------2-----
----4-----------0-----


	bridge (each chord is one bar)

---------------------
---------------------
---------------------
--4----4----4----4---
--6----6----6----6---
--4----4----4----4---

	(triplets)
---------------------
---------------------
---8-8-8-8-9-8-------
---------------------
---6-6-6-6-7-6-------
---------------------


------------------
------------------
------------------
---9--------------
---9--------------
---7--------------

this is good enough of
a start for you to just
finish the rest your self


Important: The song above is NOT stored on the Chordie server. The original song is hosted at www.xguitar.com. Chordie works as a search engine and provides on-the-fly formatting. Chordie does not index songs against artists'/composers' will. To remove this song please click here.

This song is displayed as text-only. Transposing and tuning is only available for chordpro-songs.

Login - add to songbook

Rating click stars to rate

Layout
Accuracy

SHARE PAGE  




You need to log in to post comments