Guitar Tabs, Chords and Lyrics


It Was Fear of Myself That Made Me Odd    Alexisonfire



It Was Fear Of Myself That Made Me Odd
Alexisonfire
Dropped Db
Tabbed by Alex Pavlov - dragin22@hotmail.com. feel free to drop a line.

Here's roughly what the solo is...just do palm muted pull-offs...sounds close to it.

Solo
|-------------------------------------------------------------12--/12-----
|-------------------------------------------------------------------------
|--12----------11--12----------12------------/11h12p11--------------------
|-------12--9-----------12--9-------12---9--------------------------------
|-------------------------------------------------------------------------
|-------------------------------------------------------------------------

|--------------------------------------------------------------------------------------------------
|--------------------------------------------------------------------12p0--10p0â€"12p0------
|--12----------11--12-----------11h12p11---11h12p11---9--------------------------------
|------12---9------------12p9------------------------------------------------------------------
|------------------------------------------------------------------------------------------------
|-------------------------------------------------------------------------------------------------

|---------------------------------------------------------------------------------------------------
|-------------------------------------------15------------------15----------------------------------
|--11h12p11-------11h12p11-------11h12p11--------12---11h12p11-------12---11h12p11-----------------
|------------14-------------14-------------------------------------------------------------------
|-------------------------------------------------------------------------------------------------
|-------------------------------------------------------------------------------------------------

|-12-12------------------------12--12------------------------15-15-15-15-151515(15b17 later)------------
|---------15--15-----12-12--------------15--15---12--12-------------------------------------------------
|-----------------------------------------------------------------------------------------------------------
|-----------------------------------------------------------------------------------------------------------
|-----------------------------------------------------------------------------------------------------------
|-----------------------------------------------------------------------------------------------------------

chords used
|-----------------------------------------------------------------------------------------------------------
|-----------------------------------------------------------------------------------------------------------
|-----------------------------------------------------------------------------------------------------------
|--2----5----0----7-------------------------------------------------------------------------------
|--2----3----0----7--------------------------------------------------------------------------------


Important: The song above is NOT stored on the Chordie server. The original song is hosted at www.xguitar.com. Chordie works as a search engine and provides on-the-fly formatting. Chordie does not index songs against artists'/composers' will. To remove this song please click here.

This song is displayed as text-only. Transposing and tuning is only available for chordpro-songs.

Login - add to songbook

Rating click stars to rate

Layout
Accuracy

SHARE PAGE  




You need to log in to post comments