Guitar Tabs, Chords and Lyrics


Sharks and Danger    Alexisonfire



Alexisonfire-sharks and danger

1st guitar

E -----------------------------------------1~
B -------------------------------------------
G --3---------3------33------3---------3---3~
D -3-3---------3------------3â€"3---------3--4~
A 1------------------------1-----------------
E ------1s2-2-----22-------------1s2-2-------

2nd guitar(plays with the 1st)

E ------------------------------6-----
B ---------------------------6~--6p7p6
G -535-535-636-636--6----6------------
D 3---3---4---4---33-3-44-4-----------
A ------------------------------------
E ------------------------------------


then

E 1~-----------4~
B 3~-1p2p1-----6~
G 3~------1p3--6~
D 3~-----------6~
A ---------------
E ---------------

Then its drums,singing,bass and sound effects until 2:40

2:40

E ------
B ---999
G ---888
D 8-----
A 8-----
E 6-----  x4

2:44

E -
B -
G -
D 4
A 4
E 2  x 16

3:12

E ----
B ----
G ----
D 8~4~
A 8~4~
E 6~2~

3:30

E 11p911p911p911p9
B ----------------
G ----------------
D ----------------
A ----------------
E ----------------

3:32

E ---------------------------------
B ---------------------------------
G ---------------------------------
D ---------------------------------
A 444444444444-888-666-444444444444
E 222222222222-666-444-222222222222      that until the end of the song



Important: The song above is NOT stored on the Chordie server. The original song is hosted at www.xguitar.com. Chordie works as a search engine and provides on-the-fly formatting. Chordie does not index songs against artists'/composers' will. To remove this song please click here.

This song is displayed as text-only. Transposing and tuning is only available for chordpro-songs.

Login - add to songbook

Rating click stars to rate

Layout
Accuracy

SHARE PAGE  




You need to log in to post comments