Guitar Tabs, Chords and Lyrics


Again  Alice In Chains

      4 6 [Ab5]6 x x x          4 [Db5/Ab]4 6 6 x x          4 6 [Ab]6 5 x x          3 x 0[G] 0 0 x
      x 0 2[A] 2 2 0
Gtr I (Eb Ab Db Gb Bb Eb) - 'J.C. dist electric'
Gtr II (Eb Ab Db Gb Bb Eb) - 'J.C. dist electric'
Gtr III (Eb Ab Db Gb Bb Eb) - 'J.C. dist electric'
Intro
Q=122
[4/4] Gtr I
          PM----------|     PM-----------------
|-----||------------------|-------------------|
|-----||o-----------------|-------------------|
|-----||----6-----------7-|-------------------|
|-----||----6-----------7-|-5-5-5-5-5-5-5-----|
|-6-6-||o-6---6-6-6-6-6---|-5-5-5-5-5-5-5-5-5-|
|-4-4-||--4---4-4-4-4-4---|-3-3-3-3-3-3-3-3-3-|
 -|     PM------|       PM--------------|
|---------------------|---------------------||
|---------------------|--------------------o||
|----6-------------7--|---------------------||
|----6-------------7--|-5-5-5-5-5-5-5-------||
|-6-(4)-6-6-6-6-6-(5)-|-5-5-5-5-5-5-5-x-x--o||
|-4-----4-4-4-4-4-----|-3-3-3-3-3-3-3-x-x---||

Verses
$
    PM  PM------|     PM------------------|   PM------|     PM--------------|
||------------------|-------------------|-----------------|-------------------|
||o-----------------|-------------------|-----------------|-------------------|
||----6-----------7-|-------------------|---6-----------7-|-------------------|
||----6-----------7-|-5-5-5-5-5-5-5-----|---6-----------7-|-5-5-5-5-5-5-5-----|
||o-6---6-6-6-6-6-5-|-5-5-5-5-5-5-5-5-5-|-6-4-6-6-6-6-6-5-|-5-5-5-5-5-5-5-5-5-|
||--4---4-4-4-4-4---|-3-3-3-3-3-3-3-3-3-|-4---4-4-4-4-4---|-3-3-3-3-3-3-3-3-3-|
  PM  PM------|     PM------------------|   PM------|     PM--------------|
|-----------------|-------------------|-----------------|---------------------||
|-----------------|-------------------|-----------------|--------------------o||
|---6-----------7-|-------------------|---6-----------7-|---------------------||
|---6-----------7-|-5-5-5-5-5-5-5-----|---6-----------7-|-5-5-5-5-5-5-5-------||
|-6---6-6-6-6-6-5-|-5-5-5-5-5-5-5-5-5-|-6-4-6-6-6-6-6-5-|-5-5-5-5-5-5-5-5-5--o||
|-4---4-4-4-4-4---|-3-3-3-3-3-3-3-3-3-|-4---4-4-4-4-4---|-3-3-3-3-3-3-3-3-3---||
  PM  PM------|     PM------------------|   PM------|     PM--------------|
|-----------------|-------------------|-----------------|--------------------||
|-----------------|-------------------|-----------------|--------------------||
|---6-----------7-|-------------------|---6-----------7-|--------------------||
|---6-----------7-|-5-5-5-5-5-5-5-----|---6-----------7-|-5-5-5-5-5-5-5------||
|-6---6-6-6-6-6-5-|-5-5-5-5-5-5-5-5-5-|-6-4-6-6-6-6-6-5-|-5-5-5-5-5-5-5-5-5--||
|-4---4-4-4-4-4---|-3-3-3-3-3-3-3-3-3-|-4---4-4-4-4-4---|-3-3-3-3-3-3-3-3-3--||

Chorus
$$
  [AbDbAbAb]Gtrs I, II[G] [A]
| | | | | | | | |
Gtr III
~~~~~~~~
|-----------------|-----(0)-----0-(0)--0--|
|-----------------|------2------2-(2)--2--|
|-----------------|------0------0-(0)--0--|
|-----------------|-----------------------|
|-----4---5p4-----|-----------------------|
|-4-4-4-4-----4-3-|-(3)-----(3)-----------|

  [AbDbAbAb]| |  |     |     [G]|    |  [A]| |    |
~~~~~~~~
|--------------------|----------------0---|
|--------------------|-----2---2-(2)--2---|
|--------------------|-----0---0-(0)--0---|
|-----(4)---(4)------|--------------------|
|------4-----5p4-----|--------------------|
|-4-4--4--4------4-3-|-(3)---3------------|

  [AbDbAbAb]| |  |     |     [G]|    |  [A] |   |     |
~~~~~~~~
|--------------------|-----(0)-----0-(0)---0--|
|--------------------|------2------2-(2)-2-2--|
|--------------------|------0------0-(0)-0-0--|
|-----(4)---(4)------|------------------------|
|------4-----5p4-x---|------------------------|
|-4-4--4--4--------3-|-(3)-----(3)------------|

To Coda
To Coda
  [AbDbAbAb]| |  |    |     [G]|    |  [A]| |    |
~~~~~~~~
|-------------------|----------------0---|
|-------------------|-----2---2-(2)--2---|
|-------------------|-----0---0-(0)--0---|
|-----(4)---4-------|--------------------|
|------4----5p4-----|--------------------|
|-4-4--4--4-----4-3-|-(3)---3------------|

D.S. al Coda
Gtrs I, II
  PM  PM------|     PM------------------|   PM------|     PM--------------|
|-----------------|-------------------|-----------------|--------------------||
|-----------------|-------------------|-----------------|--------------------||
|---6-----------7-|-------------------|---6-----------7-|--------------------||
|---6-----------7-|-5-5-5-5-5-5-5-----|---6-----------7-|-5-5-5-5-5-5-5------||
|-6---6-6-6-6-6-5-|-5-5-5-5-5-5-5-5-5-|-6-4-6-6-6-6-6-5-|-5-5-5-5-5-5-5-5-5--||
|-4---4-4-4-4-4---|-3-3-3-3-3-3-3-3-3-|-4---4-4-4-4-4---|-3-3-3-3-3-3-3-3-3--||

&
Gtr I
|-------------------|-------------------|---------------------|
|-------------------|-------------------|---------------------|
|---6-----------7-7-|---6-----------7-7-|---6-------------7-7-|
|---6-6-----0-5-7-7-|---6-6-----0-5-7-7-|---6-6-----<5>-5-7-7-|
|-6-4-6-------5-5-5-|-6-4-6-------5-5-5-|-6-4-6---------5-5-5-|
|-4-4-4-<4>---3-----|-4-4-4-<4>---3-----|-4-4-4-<4>-----3-----|

Gtr III
<
~~~~~
|-------------------------|
|-------------------------|

|-6pb7====================|
|-------------------------|
|-------------------------|
|-------------------------|

|
| Gtr II G
|-------------------------|
|-------------------------|
|---------5-----------7-7-|
|-6-----6-6---------5-7-7-|
|-6-----4-6---------5-5-5-|
|-4-----4-4-<4>-<3>-3-----|

~
|--------------------------|--------------------------|
|---7b9==(7)--7---7--7-7-7r|=(7)-7-------(7)----------|
|--------------------------|-----------------6b7======|
|--------------------------|--------------------------|
|--------------------------|--------------------------|
|--------------------------|--------------------------|

|
|trs I, II
|--------------------------|--------------------------|
|--------------------------|--------------------------|
|---6------------------7-7-|-----6----------------7-7-|
|---6-----6----------5-7-7-|--6--6-6---------5----7-7-|
|-6-4-----6----------5-5-5-|--6--4-6---------5----5-5-|
|-4-4-----4--<4>-<3>-3-----|--4----4-<4>-<3>-3--------|

~~~~~~~~~~~~~~~~~~~~~~~~~~~~~~~~~~~~~~~~~~~~
|---------------------------|-----------------------|
|---------------------------|-----------------------|
|-(6)---(6)-----------(6)r==|=(6)-------------------|
|---------------------------|-----------------------|
|---------------------------|-----------------------|
|---------------------------|-----------------------|

|
|---------------------------|-----------------------|
|---------------------------|-----------------------|
|-----6----------------7--7-|-----6-------------7-7-|
|--6--6--6----------5--7--7-|--6--6-6---------5-7-7-|
|--6--4--6----------5--5--5-|--6--4-6---------5-5-5-|
|--4-----4--<4>-<3>-3-------|--4----4-<4>-<3>-3-----|

~~~~~
|-------------------------------|
|-----7b9==(7)--7---7--7-[7]-7r=|
|-(6)---------------------------|
|-------------------------------|
|-------------------------------|
|-------------------------------|

|
|-------------------------------|
|-------------------------------|
|-----6-------------------7--7--|
|--6--6-----6----------5--7--7--|
|--6--4-----6----------5--5--5--|
|--4--------4--<4>-<3>-3--------|

~
|----------------------------|---------------------------|
|-(7)-7-------(7)------------|---------------------------|
|-----------------6b7====(6)-|-(6)---------------(6)r(6)-|
|----------------------------|---------------------------|
|----------------------------|---------------------------|
|----------------------------|---------------------------|

|
|----------------------------|---------------------------|
|----------------------------|---------------------------|
|-----6----------------7--7--|-----6--------------7---7--|
|--6--6-6---------5----7--7--|--6--6-6---------5--7---7--|
|--6--4-6---------5----5--5--|--6--4-6---------5--5---5--|
|--4----4-<4>-<3>-3----------|--4----4-<4>-<3>-3---------|

~~~~~~~~~~~~~~~ T
|--------------------------------|----------------------|
|--------------------------------|----------------------|
|-(6)---------(6)-4-4(16)b6==(4)-|-(4)r==========(4)----|
|--------------------------------|----------------------|
|--------------------------------|----------------------|
|--------------------------------|----------------------|

|
|                                      PM--------|
|--------------------------------|----------------------|
|--------------------------------|----------------------|
|-----6-------------7---------7--|-----6-------------7--|
|--6--6-6---------5-7---------7--|--6--6-6-6-6-6--6--7--|
|--6--4-6---------5-5---------5--|--6--4-6-6-6-6--6--5--|
|--4----4-<4>-<3>-3--------------|--4----4-4-4-4--4-----|

Gtrs I, II
   PM-------------------|     PM------|
|---------------------|---------------------|
|---------------------|---------------------|
|-(4)-----------------|----6-------------7--|
|--5--5-5-5-5-5-5-----|----6-------------7--|
|--5--5-5-5-5-5-5-5-5-|-6-(4)-6-6-6-6-6-(5)-|
|--3--3-3-3-3-3-3-3-3-|-4-----4-4-4-4-4-----|

Verse 3
  PM--------------------|   PM------|
|-------------------||-------------------|
|-------------------||o------------------|
|-------------------||----6-----------7--|
|-5-5-5-5-5-5-5-----||----6-----------7--|
|-5-5-5-5-5-5-5-x-x-||o-6---6-6-6-6-6----|
|-3-3-3-3-3-3-3-x-x-||--4---4-4-4-4-4----|
  PM------------------|   PM------|
|-------------------|-----------------|
|-------------------|-----------------|
|-------------------|---6-----------7-|
|-5-5-5-5-5-5-5-----|---6-----------7-|
|-5-5-5-5-5-5-5-5-5-|-6-4-6-6-6-6-6-5-|
|-3-3-3-3-3-3-3-3-3-|-4---4-4-4-4-4---|

1.,2. 3.
D.S.S. al Dbl. Coda
  PM----------------------------------|
|--------------------||------------------||
|-------------------o||------------------||
|--------------------||------------------||
|-5-5-5-5-5-5-5------||-5-5-5-5-5-5-5-5--||
|-5-5-5-5-5-5-5-5-5-o||-5-5-5-5-5-5-5-5--||
|-3-3-3-3-3-3-3-3-3--||-3-3-3-3-3-3-3-3--||

&&
Gtrs I, II
|-------------------|-------------------|---------------------|
|-------------------|-------------------|---------------------|
|---6-----------7-7-|---6-----------7-7-|-----------------7-7-|
|-6-6-6-------5-7-7-|-6-6-6---x-0-5-7-7-|-6-6-6-----x-0-5-7-7-|
|-6-4-6-----5-5-5-5-|-6-4-6-------5-5-5-|-6-4-6---------5-5-5-|
|-4-4-4-<4>-3-3-----|-4---4-4-----3-----|-4-4-4-<4>-----3-----|

Outro
Gtr III
|-------------------||----------------------------------------|
|-------------------||---7b9==(7)-7--7--[7]-[7]-[7]-[7]r([7])-|
|-------------------||----------------------------------------|
|-------------------||----------------------------------------|
|-------------------||----------------------------------------|
|-------------------||----------------------------------------|

|
| Gtrs I, II
|-------------------||----------------------------------------|
|-------------------||----------------------------------------|
|---6-----------7-7-||---6-----------------------7---7--------|
|-6-6-6-------5-7-7-||-6-6--------6----------5---7---7--------|
|-6-4-6-----5-5-5-5-||-6-4--------6------5---5---5---5--------|
|-4-4-4-<4>-3-3-----||-4-4--------4-<4>--3---3----------------|

~~~~~~~~~~~~
|----------------------------|
|-(7)-7-------(7)------------|
|-----------------6---(6)b7==|
|----------------------------|
|----------------------------|
|----------------------------|

|
|----------------------------|
|----------------------------|
|-----6-------------7--7-----|
|--6--6-6---------5-7--7-----|
|--6--4-6------5--5-5--5-----|
|--4--4-4-<4>--3--3----------|

~~~
|-----------------------|---------------------|
|-----------------------|---------------------|
|-(6)-------------(6)r==|=(6)-----------------|
|-----------------------|---------------------|
|-----------------------|---------------------|
|-----------------------|---------------------|

|
|-----------------------|---------------------|
|-----------------------|---------------------|
|-----6------------7--7-|-----6-----------7-7-|
|--6--6-6-------5--7--7-|--6--6-6-------5-7-7-|
|--6--4-6-----5-5--5--5-|--6--4-6-----5-5-5-5-|
|--4--4-4-<4>-3-3-------|--4--4-4-<4>-3-3-----|
||------------------------------------|
||o-----7b9==(7)--7--[7]-[7]-[7]-[7]r=|
||--(6)-------------------------------|
||------------------------------------|
||o-----------------------------------|
||------------------------------------|

|
||------------------------------------|
||o-----------------------------------|
||------6---------------------7---7---|
||---6--6-----6-----------5---7---7---|
||o--6--4-----6-------5---5---5---5---|
||---4--4-----4--<4>--3---3-----------|

~~~~~~~~~~~~
|----------------------------|-----------------------|
|-(7)-7-------(7)------------|-----------------------|
|-----------------6---(6)b7==|=(6)-------------(6)r==|
|----------------------------|-----------------------|
|----------------------------|-----------------------|
|----------------------------|-----------------------|

|
|----------------------------|-----------------------|
|----------------------------|-----------------------|
|-----6-------------7--7-----|-----6------------7--7-|
|--6--6-6---------5-7--7-----|--6--6-6-------5--7--7-|
|--6--4-6------5--5-5--5-----|--6--4-6-----5-5--5--5-|
|--4--4-4-<4>--3--3----------|--4--4-4-<4>-3-3-------|

~
|--------------------||----------------------------|
|-------------------o||-----7b9==(7)--7--7-7-7-7r==|
|-6------------------||-(6)------------------------|
|--------------------||----------------------------|
|-------------------o||----------------------------|
|--------------------||----------------------------|

|
|--------------------||----------------------------|
|-------------------o||----------------------------|
|---6-----------7-7--||-----6----------------7-7---|
|-6-6-6-------5-7-7--||--6--6-----6--------5-7-7---|
|-6-4-6-----5-5-5-5-o||--6--4-----6------5-5-5-5---|
|-4-4-4-<4>-3-3------||--4--4-----4--<4>-3-3-------|

~~~~~~~~~~~~
|----------------------------|
|-(7)-7-------(7)------------|
|-----------------6---(6)b7==|
|----------------------------|
|----------------------------|
|----------------------------|

|
|----------------------------|
|----------------------------|
|-----6-------------7--7-----|
|--6--6-6---------5-7--7-----|
|--6--4-6------5--5-5--5-----|
|--4--4-4-<4>--3--3----------|

T T ~~
|------------------------------------|---------------------*|
|------------------------------------|---------------------*|
|-(6)---------(6)-18p6-(6)-(6(18))---|-6r=============(6)--*|
|------------------------------------|---------------------*|
|------------------------------------|---------------------*|
|------------------------------------|---------------------*|

|
|------------------------------------|---------------------*|
|------------------------------------|---------------------*|
|-----6-----------------7----------7-|---6-----------------*|
|--6--6-6------------5--7----------7-|-6-6-6---------------*|
|--6--4-6------5-----5--5----------5-|-6-4-6-----<5>-------*|
|--4--4-4-<4>--3-----3---------------|-4-4-4-<4>-<3>-------*|

Tablature Legend
----------------

h - hammer-on
p - pull-off
b - bend
pb - pre-bend
r - bend release (if no number after the r, then release immediately)
/\ - slide into or out of (from/to "nowhere")
s - legato slide
S - shift slide
- natural harmonic
[n]  - artificial harmonic
n(n) - tapped harmonic
~ - vibrato
tr - trill
T - tap
TP - trem. picking
PM - palm muting
\n/ - tremolo bar dip; n = amount to dip
\n - tremolo bar down
n/ - tremolo bar up
/n\ - tremolo bar inverted dip
= - hold bend; also acts as connecting device for hammers/pulls
<> - volume swell (louder/softer)
x - on rhythm slash represents muted slash
o - on rhythm slash represents single note slash
Misc Legend
-----------

| - bar
|| - double bar
||o - repeat start
o|| - repeat end
*| - double bar (ending)
: - bar (freetime)
$ - Segno
& - Coda
Tempo markers - = BPM(8/16=s8/s16), where s8 = swing 8ths, s16 = swing 16ths

Important: The song above is NOT stored on the Chordie server. The original song is hosted at www.xguitar.com. Chordie works as a search engine and provides on-the-fly formatting. Chordie does not index songs against artists'/composers' will. To remove this song please click here.

Text color:
Chord color:
Chord grids: 
Font size:    
Page size: 

A Ab Ab5 G
variations - click chord images

Login - add to songbook

Transpose chords

Tuning

Rating click stars to rate

Layout
Accuracy

SHARE PAGE  




You need to log in to post comments