Down In A Hole

Alice In Chains

------


 A5add9AmDsus4D
|---------------------------------|-3-----------2-------------------|
|-0-t-1---------------1-----------|-----3---------------3-----------|
|---------2---------------2-------|---------2---------------2-------|
|-------------2---------------2---|-----------------------------0---|
|-----------------0---------------|---------------------------------|
|---------------------------------|---------------------------------|

| 1 e + a 2 e + a 3 e + a 4 e + a 1 e + a 2 e + a 3 e + a 4 e + a
Intro Solo (two guitars written for one)
----------
|---------------------------------|---------------------------------|
|-3-t-5---------------------------|---------------------------------|
|-4-t-5---------------------------|---------------------*-----------|
|---------------------------------|-4---5---4---2-----2g4---2-------|
|---------------------------------|-----------------------------3---|
|---------------------------------|---------------------------------|

1 e + a 2 e + a 3 e + a 4 e + a 1 e + a 2 e + a 3 e + a 4 e + a
*grace note
|---------------------------------|----------------------------------|
|---------------------------------|--------------------3----5t6p5s3--|
|---------------------------------|---------2-t-4-t-5--4----5t7p5s4--|
|-----------------------------2---|-4-t-5----------------------------|
|-0-------------------0---3-------|----------------------------------|
|---------------------------------|----------------------------------|

1 e + a 2 e + a 3 e + a 4 e + a 1 e + a 2 e + a 3 e + a 4 p t + a
|---------------------------------|---------------------------------|
|-3-t-5---------------------------|---------------------------------|
|-4-t-5---------------------------|---------------------------------|
|---------------------------------|-4---5---4---2-------------------|
|---------------------------------|---------------------------------|
|---------------------------------|---------------------------------|

1 e + a 2 e + a 3 e + a 4 e + a 1 e + a 2 e + a 3 e + a 4 e + a
|---------------------------------|---------------------------------|
|-7-b-8-b-7-------5-t-7---5-------|-3-t-5---3-----------------------|
|-7-b-9-b-7-------5-t-7---5-------|-4-t-5---4---4-t-5-b-7-b-5---4---|
|---------------------------------|-------------5-t-7-b-9-b-7---5---|
|---------------------------------|---------------------------------|
|---------------------------------|---------------------------------|

1 e + a 2 e + a 3 e + a 4 e + a 1 e + a 2 e + a 3 e + a 4 e + a
|---------------------------------|
|---------------------------------|
|-5-------------------------------|
|-7-------------------------------|
|---------------------------------|
|---------------------------------|

1 e + a 2 e + a 3 e + a 4 e + a
Riff B
------

 A5G5D5
|-----------------------------3---|-3---3-------2-------------------|
|-----------------------------3---|-3-------3---3-------------------|
|-----------------------------0---|-0-----------2-------------------|
|-9---10--9---7---------------0---|-0-----------0-------------------|
|-0---0---0---0---------------x---|-x-----------0-------------------|
|-----------------------------3---|-3-------------------------------|

1 e + a 2 e + a 3 e + a 4 e + a 1 e + a 2 e + a 3 e + a 4 e + a
Riff C
------

 D5CG
|-----------------------------0---|-0---0---------------0-----------|
|-----------------------------1---|-1-------3---3---3-------3-------|
|-9---10--9---7---------------0---|-0-----------0---0-----------0---|
|-0---0---0---0---------------2---|-2-----------0---0---------------|
|-----------------------------3---|-3-----------2---2---------------|
|---------------------------------|-------------3---3---------------|

1 e + a 2 e + a 3 e + a 4 e + a 1 e + a 2 e + a 3 e + a 4 e + a
|-----------------------------0---|-0---0---------------0-----------|
|-----------------------------1---|-1-------3---3---3-------3-------|
|-9---10--9---7b9-7-----------0---|-0-----------0---0-----------0---|
|-0---0---0---0---0-----------2---|-2-----------0---0---------------|
|-----------------------------3---|-3-----------2---2---------------|
|---------------------------------|-------------3---3---------------|

1 e + a 2 e + a 3 e + a 4 e + a 1 e + a 2 e + a 3 e + a 4 e + a
Riff D
------

 D5E5F5C5
|---------------------------------|---------------------------------|
|-3-------------------------------|---------------------------------|
|-2-------------------------------|-5---5-----------------------5---|
|-0-----------2-------3-----------|-5---5-----------------------5---|
|-0-----------2-------3-----------|-3---3-----------------------3---|
|-------------0-------1-----------|---------------------------------|

1 e + a 2 e + a 3 e + a 4 e + a 1 e + a 2 e + a 3 e + a 4 e + a
 G5A5G5F5
|---------------------------------|---------------------------------|
|---------------------------------|---------------------------------|
|-5-------------------------------|---------------------------------|
|-5---5---5-------------------5---|-5s7-5---3---3-------------------|
|-3---5---5-------------------5---|-5s7-5---3---3-------------------|
|-----3---3-------------------3---|-3s5-3---1---1-------------------|

1 e + a 2 e + a 3 e + a 4 e + a 1 e + a 2 e + a 3 e + a 4 e + a
 A5
|---------------------------------|
|---------------------------------|
|-2-------------------------------|
|-2-------------------------------|
|-0-------------------------------|
|---------------------------------|

1 e + a 2 e + a 3 e + a 4 e + a
Outro Solo A
------------
|---------------------------------|---------------------------------|
|---------------------------------|---------------------------------|
|-7-b-9-----------b-----------7---|---------------------------------|
|---------------------------------|-4-t-5---4---2-----2g4---2-------|
|---------------------------------|-----------------------------3---|
|---------------------------------|---------------------------------|

1 e + a 2 e + a 3 e + a 4 e + a 1 e + a 2 e + a 3 e + a 4 e + a
|---------------------------------|---------------------------------|
|---------------------------------|---------------------------------|
|---------------------------------|-------------0---2-t-4-b-5-b-4---|
|-----------------------------2---|-4-b-5-b-4-----------------------|
|-0-------------------0---3-------|---------------------------------|
|---------------------------------|---------------------------------|

1 e + a 2 e + a 3 e + a 4 e + a 1 e + a 2 e + a 3 e + a 4 e + a
|---------------------------------|---------------------------------|
|---------------------------------|---------------------------------|
|-2-------------------------------|---------------------------------|
|---------------------------------|-4-t-5---4---2-----2g4---2-------|
|---------------------------------|-----------------------------3---|
|---------------------------------|---------------------------------|

1 e + a 2 e + a 3 e + a 4 e + a 1 e + a 2 e + a 3 e + a 4 e + a
|---------------------------------|---------------------------------|
|---------------------------------|---------------------------------|
|---------------------------------|---------------------------------|
|---------------------------------|---------------------------------|
|-0-------------------------------|-----3-s-2-s-3---3-s-2-----------|
|---------------------------------|-------------------------3-------|

1 e + a 2 e + a 3 e + a 4 e + a 1 e + a 2 e + a 3 e + a 4 e + a
|---------------------------------|
|---------------------------------|
|---------------------------------|
|---------------------------------|
|---------------------------------|
|-3-s-5---------------------------|

1 e + a 2 e + a 3 e + a 4 e + a
Riff E
------
|-----5---------------3-----------|-----1-------------------2-3-2---|
|-6-------6---5-----------5---3---|---------3---1-------3-----------|
|---------------------------------|---------------------------------|
|---------------------------------|---------------------------------|
|---------------------------------|---------------------------------|
|---------------------------------|---------------------------------|

1 e + a 2 e + a 3 e + a 4 e + a 1 e + a 2 e + a 3 e + a 4 e + a
Outro Solo B
------------
|---------------------------------|---------------------------------|
|---------------------------------|---------------------------------|
|-9--10---9---7-------------------|-7-------b-------7---------------|
|---------------------------------|---------------------------------|
|---------------------------------|---------------------------------|
|---------------------------------|---------------------------------|

1 e + a 2 e + a 3 e + a 4 e + a 1 e + a 2 e + a 3 e + a 4 e + a
|---------------------------------|10----------10-----------------------|
|---------------------------------|-------------------------------------|
|---------------------------------|-----9-b11-------9b10b-9--7--9---7---|
|---------------------------------|-------------------------------------|
|---------------------------------|-------------------------------------|
|---------------------------------|-------------------------------------|

1 e + a 2 e + a 3 e + a 4 e + a 1 e + a 2 e + a 3 e + a 4 e + a
|---------------------------------|---------------------------------|
|---------------------------------|---------------------------------|
|(7)------------------------------|(7)------------------------------|
|---------------------------------|---------------------------------|
|---------------------------------|---------------------------------|
|---------------------------------|---------------------------------|

1 e + a 2 e + a 3 e + a 4 e + a 1 e + a 2 e + a 3 e + a 4 e + a
|----------------------------------|---------------------------------|
|----------------------------------|---------------------------------|
|----------------------------------|---------------------------------|
|----------------------------------|---------------------------------|
|---------------------9b10b9---9b10|-b---9-p-7-s-5---7b8-----7b8-----|
|----------------------------------|---------------------------------|

1 e + a 2 e + a 3 e + a 4 e + a 1 e + a 2 e + a 3 e + a 4 e + a
|---------------------------------|---------------------------------|
|------------fdbk(10)-------------|10)------------------------------|
|---------------------------------|---------------------------------|
|---------------------------------|---------------------------------|
|-5-------------------------------|---------------------------------|
|---------------------------------|---------------------------------|

1 e + a 2 e + a 3 e + a 4 e + a 1 e + a 2 e + a 3 e + a 4 e + a
|-------------------------------------|---------------------------------|
|-----------------------------15b18---|-----b--------------15--13-------|
|----------------------12s14----------|----------------------------14-12|
|-------------------------------------|---------------------------------|
|-------------------------------------|---------------------------------|
|-------------------------------------|---------------------------------|

1 e + a 2 e + a 3 e + a 4 e + a 1 e + a 2 e + a 3 e + a 4 p t
|-----------------------------------|---------------------------------|
|----------13-----------13------13--|--------13-------13-----------13-|
|12b14b14----------12b14----14------|12b14b14-----12b14-------12b14---|
|-----------------------------------|---------------------------------|
|-----------------------------------|---------------------------------|
|-----------------------------------|---------------------------------|

1 e + a 2 e + a 3 e + a 4 e + a 1 e + a 2 e + a 3 e + a 4 e + a
|-----------------------------------|-----------------------------------|
|----------13-----------13------13--|-----------------------------------|
|12b14b14----------12b14----14------|12b14b---12b14-10------------------|
|-----------------------------------|-----------------------------------|
|-----------------------------------|-----------------------------------|
|-----------------------------------|-----------------------------------|

1 e + a 2 e + a 3 e + a 4 e + a 1 e + a 2 e + a 3 e + a 4 e + a
|---------------------------------|---------------------------------|
|---------------------------------|---------------------------------|
|17b-19-b-17--12b-14-b12--10------|---------------------------------|
|---------------------------------|10-------------------------------|
|---------------------------------|---------------------------------|
|---------------------------------|---------------------------------|

1 e + a 2 e + a 3 e + a 4 e + a 1 e + a 2 e + a 3 e + a 4 e + a
|---------------------------------|---------------------------------|
|---------------------------------|------------/5---5---6---5--8b10-|
|---------------------------------|------------/5---5---5---5-------|
|(10)-----------------------------|---------------------------------|
|---------------------------------|---------------------------------|
|---------------------------------|---------------------------------|

1 e + a 2 e + a 3 e + a 4 e + a 1 e + a 2 e + a 3 e + a 4 e + a
|---------------------------------|---------------------------------|
|(10)-----------------------------|-----5-------7---5-------7---7b9-|
|---------------------------------|-----5-------7---5-------7---7b9-|
|---------------------------------|---------------------------------|
|---------------------------------|---------------------------------|
|---------------------------------|---------------------------------|

1 e + a 2 e + a 3 e + a 4 e + a 1 e + a 2 e + a 3 e + a 4 e + a
|---------------------------------|---------------------------------|
|-----------------------7-p-5-----|---------------------------------|
|-----------------------7-p-5-----|---------------------------------|
|---------------------------------|-----------------------------7p5-|
|---------------------------------|---------------------------------|
|---------------------------------|---------------------------------|

1 e + a 2 e + a 3 e + a 4 e + a 1 e + a 2 e + a 3 e + a 4 e + a
|---------------------------------|---------------------------------|
|---------------------------------|-------------------------5-------|
|-----------------5---5-----------|-----5---7b9-7b9---b7p5--5-------|
|-------------5t7-----------------|-5t7-----------------------------|
|---------------------------------|---------------------------------|
|---------------------------------|---------------------------------|

1 e + a 2 e + a 3 e + a 4 e + a 1 e + a 2 e + a 3 e + a 4 e + a
|-----------------------------------|---------------------------------|
|---------8b10-8b10--b--8-----------|-------------------------2-3-----|
|-----------------------------------|-------------------------2-2-----|
|-----7-----------------------------|-------------------------2-4-----|
|-----------------------------------|---------------------0-----------|
|-----------------------------------|---------------------------------|

1 e + a 2 e + a 3 e + a 4 e + a 1 e + a 2 e + a 3 e + a 4 e + a
|---------------------------------|
|-2-------------------------------|
|-2-------------------------------|
|-2--------let-fdbk---------------|
|-0-------------------------------|
|---------------------------------|

1 e + a 2 e + a 3 e + a 4 e + a


A5 Am C C5 D D5 Dsus4 E5 F5 G G5
variations - click chord images
Transpose chords:
Tuning:
Cool service:
View: Size:
A  A  A
Rating:
Layout:
  • Currently 3.1/5 Stars.
  • 1
  • 2
  • 3
  • 4
  • 5
 
Accuracy:
  • Currently 3.4/5 Stars.
  • 1
  • 2
  • 3
  • 4
  • 5
 
click stars to rate
Chordie recommends:
Check out JamPlay.com for online video guitar lessons
Songbook:
Login to add this song to your songbook
Support the artist
Preview/buy this song
MSN Music
Why this non-profit ad?

 
login to add comments/video/corrections