Them Bones

Alice In Chains

------


 D5Eb5E5F5D5D5Eb5E5F5D5
|-----------------------------|-----------------------------|
|10v*-------------------------|10v--------------------------|
|10v--------------------------|10v--------------------------|
|-0---0-0-1-1-1-1-2-2-2-3-0-0-|-0---0-0-1-1-1-1-2-2-2-3-0-0-|
|-0---0-0-1-1-1-1-2-2-2-3-0-0-|-0---0-0-1-1-1-1-2-2-2-3-0-0-|
|-0---0-0-1-1-1-1-2-2-2-3-0-0-|-0---0-0-1-1-1-1-2-2-2-3-0-0-|

 12345671234567
    ]    ]    ]    ]    ]    ]    ]      ]  ]                                                                              
P.M.  [---------------------------------------------------]

*vibrato
 D5Eb5E5F5D5D5Eb5E5F5D5
|-----------------------------|-----------------------------|
|10v*-------------------------|10v--------------------------|
|10v--------------------------|10v--------------------------|
|-0---0-0-1-1-1-1-2-2-2-3-0-0-|-0---0-0-1-1-1-1-2-2-2-3-0-0-|
|-0---0-0-1-1-1-1-2-2-2-3-0-0-|-0---0-0-1-1-1-1-2-2-2-3-0-0-|
|-0---0-0-1-1-1-1-2-2-2-3-0-0-|-0---0-0-1-1-1-1-2-2-2-3-0-0-|

 12345671234567
    ]    ]    ]    ]    ]    ]    ]      ]  ]                                                                              
P.M.  [---------------------------------------------------]

Riff B
------

 D5Eb5E5F5D5
|-----------------------------|
|-3---------------------------|
|-2---------------------------|
|-0-------1-------2-----3-----|
|-0-------1-------2-----3-----|
|-0-------1-------2-----3-----|

 1234567
    ]    ]    ]    ]    ]    ]    ]  Chorus
------

 D5Bb5A5C5B5D5Bb5
---|---------------------------------|------------------------------------|
---|-----------------------------10--|------------------------------------|
---|---------------------------------|------------------------------------|
-0-|s8---8---8-8-8-7---7---7-9t11----|10--10---10-10-10-9---9---9---0-8---|
-0-|s8---8---8-8-8-7---7---7---------|10--10---10-10-10-9---9---9---0-8---|
-0-|s8---8---8-8-8-7---7---7---------|10--10---10-10-10-9---9---9---0-8---|

+ 1 + 2 + 3 + 4 + 5 + 6 + 7 + 8 + 1 + 2 + 3 + 4 + 5 + 6 + 7 + 8 +
===============================================================================
From: Scott Beaver (beavers@pa.net)
Them Bones solo
Tune down half step for the solo
~=vibrato harm=harmonic
f=full step bend h=hammer-on
H=half step bend p=pull-off
q=quarter step bend r=release bend
/,\=slide up/down
W~=Use your bar to dive bomb
pm=palm mute
    pm---    pm---     pm---    pm---   harm
E-----------------------------------------------------------------------
B-----------------------------------------------------------------------
G-----------------------------------------------------------------------
D----------------------------------------------------------------10-12--
A-8--------8---------10-------11------10-10-8q--------------/12---------
E---10-10-----10-10-----10-10---10-10----------10-8-10-8~~--------------
hold---------
E-----------------------------------------------------------------------
B-------------------------------10--------------------------------------
G--10-12-12f-r12f------------r--10h12p10--------------------------------
D-----------------------------------------12p10-------------------------
A-----------------------------------------------12p10--10H-rp8~~~~------
E-----------------------------------------------------------------------
                                                     pm----------------
E-----------------------------------------------------------------------
B--------13-13-13~~~~~---11-10-10h11p10---------------------------------
G--9~~~------------------------------------10---------------------9-10--
D---------------------------------------------12~~----------10-12-------
A----------------------------------------------------8-10-12------------
E------------------------------------------------------------------

hold---
E------------------------------------------------------------15/17-15---
B---10h11-10~~--10-11-13f-13-11-13-11-10~~--8-10-10H--------------------
G-----------------------------------------------------------------------
D-----------------------------------------------------------------------
A-----------------------------------------------------------------------
E-----------------------------------------------------------------------
E-13----13-------------20f-20-18-17----17-------------------------------
B----16----16f--16~~----------------20----20f-r-18----18----------------
G--------------------------------------------------19----19~~~----------
D-----------------------------------------------------------------------
A-----------------------------------------------------------------------
E-----------------------------------------------------------------------
E-----------------------------------------------------------------------
B--18h20p18----18h20p18----18h20p18----18h20p18----18h20p18---18h20p18--
G-----------19----------19----------19----------19---------19---------19
D-----------------------------------------------------------------------
A-----------------------------------------------------------------------
E-----------------------------------------------------------------------
hold---------------------

(do a few dives w/bar)
E-----------------------------------------------------------------------
B--18h20p18----20f-r--18----18-----------8f-----------------------r-----
G-----------19-----------19----19~~~~~~---------------------------------
D-----------------------------------------------------------------------
A-----------------------------------------------------------------------
E-----------------------------------------------------------------------
E-----------------------------------------------------------------------
B-----6-6q--------------------------------------------------------------
G--7--------7---5h7--7--7--7--5--5--------------------------------------
D------------------------------------7\5\-------------------------------
A-----------------------------------------------------------------------
E-----------------------------------------------------------------------











A5 B5 Bb5 C5 D5 E5 Eb5
variations - click chord images
Transpose chords:
Tuning:
Cool service:
View: Size:
A  A  A
Rating:
Layout:
  • Currently 3.1/5 Stars.
  • 1
  • 2
  • 3
  • 4
  • 5
 
Accuracy:
  • Currently 2.9/5 Stars.
  • 1
  • 2
  • 3
  • 4
  • 5
 
click stars to rate
Chordie recommends:
Get acoustic guitar lessons and electric guitar lessons at JamPlay.com
Songbook:
Login to add this song to your songbook
Support the artist
Preview/buy this song
MSN Music
Why this non-profit ad?

 
login to add comments/video/corrections