Chordie logo

Man In The Box   Alice In Chains



                                  MAN IN A BOX
                         As recorded by Alice In Chains
Gtr I (D# G# C# F# A# D#) - 'Gtr. 1'
Gtr II (D# G# C# F# A# D#) - 'Gtr. 2'
Gtr III (D# G# C# F# A# D#) - 'Gtr. 3'
Gtr IV (D# G# C# F# A# D#) - 'Gtr. 4'

  Q=120
 4/4
  Gtr I       Gtrs I, II
|-----------|--------------|--------------|---------------|
|-----------|--------------|--------------|---------------|
|-----------|--------------|--------------|---------------|
|-------x-x-|---------x----|---------x----|---------x-----|
|-------x-x-|-5--x-5--x----|-5--x-5--x----|-5--x-5--x-----|
|-------x-x-|-0--x-0--x-0--|-0--x-0--x-0--|-0--x-0--x-0---|
  Gtr I
                    <    <  < <    <  < <    <    <    <    <
|-----------------|--------------|--------------|---------------|
|-----------------|--------------|--------------|---------------|
|-----------------|------7--7h9--|--------------|---------------|
|-----------------|-9------------|-7--7h9----5--|-7----5--------|
|-5--x-5--------5-|--------------|--------------|-----------7---|
|-0--x-0--0-5h7---|--------------|--------------|---------------|
|
| Gtr II
|-----------------|--------------|--------------|---------------|
|-----------------|--------------|--------------|---------------|
|-----------------|--------------|--------------|---------------|
|-----------------|---------x----|---------x----|---------x-----|
|-5--x-5--------5-|-5--x-5--x----|-5--x-5--x----|-5--x-5--x-----|
|-0--x-0--0-5h7---|-0--x-0--x-0--|-0--x-0--x-0--|-0--x-0--x-0---|
                       <    <  < <    <  < <    <    <    <    <
|--------------------|--------------|--------------|---------------|
|--------------------|--------------|--------------|---------------|
|--------------------|------7--7h9--|--------------|---------------|
|--------------------|-9------------|-7--7h9----5--|-7----5--------|
|-(7)--7-----------5-|--------------|--------------|-----------7---|
|----------0---5h7---|--------------|--------------|---------------|
|
|--------------------|--------------|--------------|---------------|
|--------------------|--------------|--------------|---------------|
|--------------------|--------------|--------------|---------------|
|--------------------|---------x----|---------x----|---------x-----|
|--5---x-5---------5-|-5--x-5--x----|-5--x-5--x----|-5--x-5--x-----|
|--0---x-0---0-5h7---|-0--x-0--x-0--|-0--x-0--x-0--|-0--x-0--x-0---|
|--------------------|--------------|--------------|---------------|
|--------------------|--------------|--------------|---------------|
|--------------------|--------------|--------------|---------------|
|--------------------|---------x----|---------x----|---------x-----|
|-(7)--7-----------5-|-5--x-5--x----|-5--x-5--x----|-5--x-5--x-----|
|----------0---5h7---|-0--x-0--x-0--|-0--x-0--x-0--|-0--x-0--x-0---|
|
|--------------------|--------------|--------------|---------------|
|--------------------|--------------|--------------|---------------|
|--------------------|--------------|--------------|---------------|
|--------------------|---------x----|---------x----|---------x-----|
|--5---x-5---------5-|-5--x-5--x----|-5--x-5--x----|-5--x-5--x-----|
|--0---x-0---0-5h7---|-0--x-0--x-0--|-0--x-0--x-0--|-0--x-0--x-0---|
  Gtrs I, II
|-----------------|--------------|--------------|---------------|
|-----------------|--------------|--------------|---------------|
|-----------------|--------------|--------------|---------------|
|-----------------|---------x----|---------x----|---------x-----|
|-5--x-5--------5-|-5--x-5--x----|-5--x-5--x----|-5--x-5--x-----|
|-0--x-0--0-5h7---|-0--x-0--x-0--|-0--x-0--x-0--|-0--x-0--x-0---|
|----------------|-----------------|-----------------|-----------------|
|----------------|-----------------|-----------------|-----------------|
|----------------|-----------------|-----------------|-----------------|
|----------------|-----------------|-----------------|-----------------|
|-5----5-5h7-----|-5-5-7-5-5-7-5-5-|-5-5-7-5-5-5-7-5-|-5-5-7-5-5-7-5-5-|
|---0--------0-0-|-3-3-3-3-3-3-3-3-|-3-3-3-3-3-3-3-3-|-3-3-3-3-3-3-3-3-|
                              <
|-----------------|---------------|--------------|--------------|
|-----------------|---------------|--------------|--------------|
|-----------------|---------------|--------------|--------------|
|-----------------|---------------|--------------|--------------|
|-5-5-7-5-5-7-5---|-5-----5---5---|-5--x-5--5----|-5--x-5--5----|
|-3-3-3-3-3-3-3-0-|-0-0-0-------0-|-0--x-0--0--0-|-5--x-5--5--0-|
  Gtr III
|-------------------------|---------------|----------------|----------------|
|-15b17---15--12----------|---------------|----------------|----------------|
|----------------15-14-12-|-15------------|----------------|----------------|
|-------------------------|---------------|----------------|----------------|
|-------------------------|---------------|----------------|----------------|
|-------------------------|---------------|----------------|----------------|
|
| Gtrs I, II
|-------------------------|-------------3-|-(3)------(3)-2-|-(2)------(2)-0-|
|-------------------------|-------------3-|-(3)------(3)-3-|-(3)------(3)-2-|
|-------------------------|-------------0-|-(0)------(0)-2-|-(2)------(2)-2-|
|-------------------------|--2------(2)-0-|-(0)------(0)-0-|-(0)------(0)-2-|
|--5h===7--5--------------|--2------(2)-2-|-(2)------(2)---|--------------0-|
|--------------7--6--5--3-|--0------(0)-3-|-(3)------(3)---|----------------|
  Gtrs I, II
             <
|-(0)----------|------------3-|-(3)------(3)-2-|-(2)------(2)-0-|
|-(2)----------|------------3-|-(3)------(3)-3-|-(3)------(3)-2-|
|-(2)----------|------------0-|-(0)------(0)-2-|-(2)------(2)-2-|
|-(2)----------|-2------(2)-0-|-(0)------(0)-0-|-(0)------(0)-2-|
|-(0)----------|-2------(2)-2-|-(2)------(2)---|--------------0-|
|----------0-3-|-0------(0)-3-|-(3)------(3)---|----------------|
             <
|-(0)----------|------------3-|-(3)------(3)-2-|-(2)------(2)---|
|-(2)----------|------------3-|-(3)------(3)-3-|-(3)------(3)-2-|
|-(2)----------|------------0-|-(0)------(0)-2-|-(2)------(2)-2-|
|-(2)----------|-2------(2)-0-|-(0)------(0)-0-|-(0)------(0)-2-|
|-(0)----------|-2------(2)-2-|-(2)------(2)---|--------------0-|
|----------0-3-|-0------(0)-3-|-(3)------(3)---|----------------|
             <
|--------------|------------3-|-(3)------(3)-2-|-(2)------(2)---|
|-(2)----------|------------3-|-(3)------(3)-3-|-(3)------(3)-2-|
|-(2)----------|------------0-|-(0)------(0)-2-|-(2)------(2)-2-|
|-(2)----------|-2------(2)-0-|-(0)------(0)-0-|-(0)------(0)-2-|
|-(0)----------|-2------(2)-2-|-(2)------(2)---|--------------0-|
|----------0-3-|-0------(0)-3-|-(3)------(3)---|----------------|
  Gtr I
             <   <    <  < <    <  < <    <    <    <    <
|--------------|--------------|--------------|--------------|
|-(2)----------|--------------|--------------|--------------|
|-(2)----------|------7--7h9--|--------------|--------------|
|-(2)----------|-9------------|-7--7h9----5--|-7----5-------|
|-(0)----------|--------------|--------------|-----------7--|
|----------0-3-|--------------|--------------|--------------|
|
| Gtr II
|            <
|--------------|--------------|--------------|--------------|
|-(2)----------|--------------|--------------|--------------|
|-(2)----------|--------------|--------------|--------------|
|-(2)----------|---------x----|---------x----|---------x----|
|-(0)----------|-5--x-5--x----|-5--x-5--x----|-5--x-5--x----|
|----------0-3-|-0--x-0--x-0--|-0--x-0--x-0--|-0--x-0--x-0--|
                       <    <  < <    <  < <    <    <    <    <
|--------------------|--------------|--------------|---------------|
|--------------------|--------------|--------------|---------------|
|--------------------|------7--7h9--|--------------|---------------|
|--------------------|-9------------|-7--7h9----5--|-7----5--------|
|-(7)--7-----------5-|--------------|--------------|-----------7---|
|----------0---5h7---|--------------|--------------|---------------|
|
|--------------------|--------------|--------------|---------------|
|--------------------|--------------|--------------|---------------|
|--------------------|--------------|--------------|---------------|
|--------------------|---------x----|---------x----|---------x-----|
|--5---x-5---------5-|-5--x-5--x----|-5--x-5--x----|-5--x-5--x-----|
|--0---x-0---0-5-7---|-0--x-0--x-0--|-0--x-0--x-0--|-0--x-0--x-0---|
|--------------------|--------------|--------------|---------------|
|--------------------|--------------|--------------|---------------|
|--------------------|--------------|--------------|---------------|
|--------------------|---------x----|---------x----|---------x-----|
|-(7)--7-----------5-|-5--x-5--x----|-5--x-5--x----|-5--x-5--x-----|
|----------0---5h7---|-0--x-0--x-0--|-0--x-0--x-0--|-0--x-0--x-0---|
|
|--------------------|--------------|--------------|---------------|
|--------------------|--------------|--------------|---------------|
|--------------------|--------------|--------------|---------------|
|--------------------|---------x----|---------x----|---------x-----|
|--5---x-5---------5-|-5--x-5--x----|-5--x-5--x----|-5--x-5--x-----|
|--0---x-0---0-5h7---|-0--x-0--x-0--|-0--x-0--x-0--|-0--x-0--x-0---|
  Gtrs I, II
|-----------------|--------------|--------------|---------------|
|-----------------|--------------|--------------|---------------|
|-----------------|--------------|--------------|---------------|
|-----------------|---------x----|---------x----|---------x-----|
|-5--x-5--------5-|-5--x-5--x----|-5--x-5--x----|-5--x-5--x-----|
|-0--x-0--0-5h7---|-0--x-0--x-0--|-0--x-0--x-0--|-0--x-0--x-0---|
|----------------|-----------------|-----------------|-----------------|
|----------------|-----------------|-----------------|-----------------|
|----------------|-----------------|-----------------|-----------------|
|----------------|-----------------|-----------------|-----------------|
|-5----5-5h7-----|-5-5-7-5-5-7-5-5-|-5-5-7-5-5-5-7-5-|-5-5-7-5-5-7-5-5-|
|---0--------0-0-|-3-3-3-3-3-3-3-3-|-3-3-3-3-3-3-3-3-|-3-3-3-3-3-3-3-3-|
                              <
|-----------------|---------------|--------------|--------------|
|-----------------|---------------|--------------|--------------|
|-----------------|---------------|--------------|--------------|
|-----------------|---------------|--------------|--------------|
|-5-5-7-5-5-7-5---|-5-----5---5---|-5--x-5--5----|-5--x-5--5----|
|-3-3-3-3-3-3-3-0-|-0-0-0-------0-|-0--x-0--0--0-|-5--x-5--5--0-|
|-------------------------|------------3-|-(3)------(3)-2-|-(2)------(2)-0-|
|-14b15--14b15--12--------|------------3-|-(3)------(3)-3-|-(3)------(3)-2-|
|-14b16--14b16--12--------|------------0-|-(0)------(0)-2-|-(2)------(2)-2-|
|------------------14-12--|-2------(2)-0-|-(0)------(0)-0-|-(0)------(0)-2-|
|-------------------------|-2------(2)-2-|-(2)------(2)---|--------------0-|
|-------------------------|-0------(0)-3-|-(3)------(3)---|----------------|
             <
|-(0)----------|------------3-|-(3)------(3)-2-|-(2)------(2)-0-|
|-(2)----------|------------3-|-(3)------(3)-3-|-(3)------(3)-2-|
|-(2)----------|------------0-|-(0)------(0)-2-|-(2)------(2)-2-|
|-(2)----------|-2------(2)-0-|-(0)------(0)-0-|-(0)------(0)-2-|
|-(0)----------|-2------(2)-2-|-(2)------(2)---|--------------0-|
|----------0-3-|-0------(0)-3-|-(3)------(3)---|----------------|
             <
|-(0)----------|------------3-|-(3)------(3)-2-|-(2)------(2)---|
|-(2)----------|------------3-|-(3)------(3)-3-|-(3)------(3)-2-|
|-(2)----------|------------0-|-(0)------(0)-2-|-(2)------(2)-2-|
|-(2)----------|-2------(2)-0-|-(0)------(0)-0-|-(0)------(0)-2-|
|-(0)----------|-2------(2)-2-|-(2)------(2)---|--------------0-|
|----------0-3-|-0------(0)-3-|-(3)------(3)---|----------------|
             <
|--------------|------------3-|-(3)------(3)-2-|-(2)------(2)---|
|-(2)----------|------------3-|-(3)------(3)-3-|-(3)------(3)-2-|
|-(2)----------|------------0-|-(0)------(0)-2-|-(2)------(2)-2-|
|-(2)----------|-2------(2)-0-|-(0)------(0)-0-|-(0)------(0)-2-|
|-(0)----------|-2------(2)-2-|-(2)------(2)---|--------------0-|
|----------0-3-|-0------(0)-3-|-(3)------(3)---|----------------|
  Gtr III
                                                              ~
|--------------|----------------|--------------|------------------------|
|--------------|----------------|--------------|------------------------|
|--------------|----------------|--------------|-----7h9-9b11-9----7----|
|--------------|----------------|--------------|-7h9-----------------9--|
|--------------|-5h7------------|--------------|------------------------|
|--------------|----------------|--------------|------------------------|
|
| Gtrs I, II
|            <
|--------------|----------------|--------------|------------------------|
|-(2)----------|----------------|--------------|------------------------|
|-(2)----------|----------------|--------------|------------------------|
|-(2)----------|-----------x----|---------x----|-----------------x------|
|-(0)----------|-5----x-5--x----|-5--x-5--x----|-5-------x----5--x------|
|----------0-3-|-0----x-0--x-0--|-0--x-0--x-0--|-0-------x----0--x-0----|
|------------------------|-----------------------------------------|
|------------------10b12-|-12-12-12-12-12---12-12-12---12-12-12-12-|
|------------------------|-----------------------------------------|
|-8-7-5-7--7b9-----------|-----------------------------------------|
|------------------------|-----------------------------------------|
|------------------------|-----------------------------------------|
|
|------------------------|-----------------------------------------|
|------------------------|-----------------------------------------|
|------------------------|-----------------------------------------|
|------------------------|---------------------------x-------------|
|-5---x-5-----------5----|--5--------x----5----------x-------------|
|-0---x-0--0---5h7-------|--0--------x----0----------x-----0-------|
|-----------------------------------|
|-10b12-12-12-12-12-10b12r(10)-8----|
|--------------------------------9--|
|-----------------------------------|

|-----------------------------------|
|-----------------------------------|
|
|-----------------------------------|
|-----------------------------------|
|-----------------------------------|
|--------------------x--------------|
|--5--------x--5-----x--------------|
|--0--------x--0-----x---------0----|
|--------------------------------------12-15-15b17==|
|-------12-12h15p12---12h15p12---15b17--------------|
|-14b16---------------------------------------------|
|---------------------------------------------------|
|---------------------------------------------------|
|---------------------------------------------------|
|
|---------------------------------------------------|
|---------------------------------------------------|
|---------------------------------------------------|
|------------------------------x--------------------|
|--5-----------x----5----------x--------------------|
|--0-----------x----0----------x--------0-----------|
                                                         Gtr IV
                                           <
|-(15)r--15-12------------------|----------------------|--------------------|
|-------------------------------|---------15-----------|---------15---------|
|--------------12h14-----14b16==|=(14)r---14-----------|--------------------|
|-------------------------------|----------------------|--------------------|
|-------------------------------|----------------------|--------------------|
|-------------------------------|----------------------|--------------------|
|
|-------------------------------|----------------------|--------------------|
|-------------------------------|----------------------|--------------------|
|-------------------------------|----------------------|--------------------|
|-------------------------------|----------------------|--------------------|
|---5-----x--5------------5-----|---5---5--7-5-5-7-5-5-|-5-5-7-5--5-5-7-5---|
|---0-----x--0-----0-5h7--------|---3---3--3-3-3-3-3-3-|-3-3-3-3--3-3-3-3---|
           <
|--------------------------|-------------------------------------|
|-15------15---------------|-------------------------------------|
|-14------14---------------|-----------x----x-x-14b16-14-12------|
|------------14------------|-12h===14--x-14-x-x---------------14-|
|----x--x-----------x----x-|-------------------------------------|
|----x--x-----------x----x-|-------------------------------------|
|
| Gtr III
|                   <                                  <
|--------------------------|-------------------------------------|
|------12------------------|--------------------------15---------|
|---------15-14-12-12b14---|-12b14----12----9--------------------|
|--------------------------|-------------------------------------|
|--------------------------|-------------------------------------|
|--------------------------|-------------------------------------|
|
| Gtrs I, II
|--------------------------|-------------------------------------|
|--------------------------|-------------------------------------|
|--------------------------|-------------------------------------|
|--------------------------|-------------------------------------|
|--5-5--7--5--5--7--5----5-|--5-----5--7--5-5----7-----5---------|
|--3-3--3--3--3--3--3----3-|--3-----3--3--3-3----3-----3----0----|
|-12-15-15-15p=12--------|---------------------|
|-----------------15-15\-|-12--------x-----12--|
|------------------------|-12-----12-x-----12--|
|------------------------|-12-----12-x-12--12--|
|------------------------|----x-x--------------|
|------------------------|----x-x--------------|
|
|------------------------|---------------------|
|------------------------|---------------------|
|------------------------|---------------------|
|------------------------|---------------------|
|------------------------|---------------------|
|------------------------|---------------------|
|
|                  <
|------------------------|---------------------|
|------------------------|---------------------|
|------------------------|---------------------|
|------------------------|---------------------|
|--5--------5------5-----|--5---x--5----5------|
|--0--0--0------------0--|--0---x--0----0---0--|
                                         Gtr III
        <
|-----------------------|--------------|---------------------|---------------|
|-----------------------|--------------|---------------------|---------------|
|---------------------2-|--------------|---------------------|---------------|
|-x---------------------|--------------|---------------------|---------------|
|-x-----7-x-x-x-x-5h7---|--------------|---------------------|---------------|
|-x-3h5-----------------|--------------|-0---------(0)-(0)---|---------------|
|
| Gtr I
|                                        <    <  <  <          <  < <    <
|-----------------------|--------------|---------------------|---------------|
|-----------------------|--------------|---------------------|---------------|
|-----------------------|--------------|------7--7h=9--------|---------------|
|-----------------------|-5--2----2----|-9-------------------|-7--7h9----5---|
|-5-----x-5-------5-----|-------5------|---------------------|---------------|
|-5-----x-5-------5---0-|-----------3--|---------------------|---------------|
|
| Gtr II
|-----------------------|--------------|---------------------|---------------|
|-----------------------|--------------|---------------------|---------------|
|-----------------------|--------------|---------------------|---------------|
|-----------------------|-5--2----2----|---------x-----------|---------x-----|
|-5-----x-5-------5-----|-------5------|-5--x-5--x-----------|-5--x-5--x-----|
|-5-----x-5-------5---0-|-----------3--|-0--x-0--x--0--------|-0--x-0--x-0---|
  Gtr I
  <    <    <                             <    <  < <    <  < <    <
|--------------|------------------------|--------------|---------------|
|--------------|------------------------|--------------|---------------|
|--------------|------------------------|------7--7h9--|---------------|
|-7----5-------|------------------------|-9------------|-7--7h9----5---|
|-----------7--|-(7)--7---------------5-|--------------|---------------|
|--------------|----------0---5h==7-----|--------------|---------------|
|
| Gtr II
|--------------|------------------------|--------------|---------------|
|--------------|------------------------|--------------|---------------|
|--------------|------------------------|--------------|---------------|
|---------x----|------------------------|---------x----|---------x-----|
|-5--x-5--x----|--5---x-5-----------5---|-5--x-5--x----|-5--x-5--x-----|
|-0--x-0--x-0--|--0---x-0---0-5h7-------|-0--x-0--x-0--|-0--x-0--x-0---|
  <    <    <
|--------------|------14---14---12-12-12-*|
|--------------|------14---14---12-12-12-*|
|--------------|------14---14---12-12-12-*|
|-7----5-------|-------------------------*|
|-----------7--|-(7)---------------------*|
|--------------|-------------------------*|
|
|--------------|-------------------------*|
|--------------|-------------------------*|
|--------------|-------------------------*|
|---------x----|-------------------------*|
|-5--x-5--x----|--5----x-5-------------5-*|
|-0--x-0--x-0--|--0----x-0----0--5h=7----*|
Tablature Legend
----------------
 h   - hammer-on
 p   - pull-off
 b   - bend
 pb  - pre-bend
 r   - bend release (if no number after the r, then release immediately)
 /\  - slide into or out of (from/to "nowhere")
 s   - legato slide
 S   - shift slide
  - natural harmonic
[n]  - artificial harmonic
n(n) - tapped harmonic
 ~   - vibrato
 tr  - trill
 T   - tap
 TP  - trem. picking
 PM  - palm muting
\n/  - tremolo bar dip; n = amount to dip
 \n  - tremolo bar down
 n/  - tremolo bar up
/n\  - tremolo bar inverted dip
 =   - hold bend; also acts as connecting device for hammers/pulls
   - volume swell (louder/softer)
 x   - on rhythm slash represents muted slash
 o   - on rhythm slash represents single note slash

Misc Legend
-----------
 |  - bar
||  - double bar
||o - repeat start
o|| - repeat end
*|  - double bar (ending)
 :  - bar (freetime)
 $  - Segno
 &  - Coda


Important: The song above is NOT stored on the Chordie server. The original song is hosted at www.xguitar.com. Chordie works as a search engine and provides on-the-fly formatting. Chordie does not index songs against artists/composers will. To remove this song please click here.

This song is displayed as text-only. Transposing and tuning is only available for chordpro-songs.

Login - add to songbook

Rating click stars to rate

Layout
Accuracy

SHARE PAGE  

You need to log in to post comments