Chordie logo


Rotten Apple   Alice In Chains



                                  ROTTEN APPLE
                         As recorded by Alice In Chains
Gtr I (D# G# C# F# A# D#) - 'Gtr. 1'
Gtr II (D# G# C# F# A# D#) - 'Gtr. 2'

  Q=72
 4/4
  Gtr I
|---------|---------|--------------------------------|
|---------|---------|--------------------------------|
|---------|---------|--------------12----------------|
|---------|---------|--------12h14-------14-(14)-----|
|---------|---------|--12h14-------------------------|
|---------|---------|--------------------------------|
|
| Gtr II
|---------|---------|---------------7--------(7)-----|
|---------|---------|---------------8b9======(8)r----|
|---------|---------|--------------------------------|
|---------|---------|--------------------------------|
|---------|---------|--------------------------------|
|---------|---------|--------------------------------|
|------------------------------------|
|---------------15-----(15)-(15)-----|
|---------------14b16==(14)-(14)r----|
|-(14)-------12----------------------|
|------12h14-------------------------|
|------------------------------------|
|
|------------------------------------|
|------------------------------------|
|------------------------------------|
|------------------------------------|
|------------------------------------|
|------------------------------------|
|----------------------------------------------------------|
|-12h15b17==(15)r-15b17-15b17==(15)r-12h15p12----12--------|
|---------------------------------------------14----14b16==|
|----------------------------------------------------------|
|----------------------------------------------------------|
|----------------------------------------------------------|
|
|----------------------------------------------------------|
|-----------------------12b15==(12)r-----------------------|
|----------------------------------------------------------|
|----------------------------------------------------------|
|----------------------------------------------------------|
|----------------------------------------------------------|
|--------------------------------------|----------------14b15===(14)r-14---|
|--------------------------------------|----------12-13--------------------|
|-(14)--(14)r-14-12h14p12-(12)---------|-12b12.5---------------------------|
|--------------------------------------|-----------------------------------|
|--------------------------------------|-----------------------------------|
|--------------------------------------|-----------------------------------|
|
|--------------------------------------|-----------------------------------|
|--------------------------------15----|-----------------------------------|
|--------------------------------14b16-|-----------------------------------|
|--------------------------------------|-----------------------------------|
|--------------------------------------|-----------------------------------|
|--------------------------------------|-----------------------------------|
|-(14)-----------------------------|
|------13--12-(12)-12p13-15-15b17==|
|----------------------------------|
|----------------------------------|
|----------------------------------|
|----------------------------------|
|-------------------------------------------|---------------------------|
|-(15)--(15)r-15-12-(12)--------------------|---------------------------|
|-------------------------12b14==(12)-(12)r-|-12---11h12p11s9--(9)--(9)-|
|-------------------------------------------|---------------------------|
|-------------------------------------------|---------------------------|
|-------------------------------------------|---------------------------|
|-----------------|------------------|
|-----------------|------------------|
|-7h9-(9)--(9)----|-(9)----(9)-(9)---|
|-----------------|------------------|
|-----------------|------------------|
|-----------------|------------------|
|----0--------------------|------------------------|
|--0---3-0----------------|--3b5==(3)-(3)r-3-------|
|----------2b3==(2)r-0--0-|------------------0h2p0-|
|-------------------------|------------------------|
|-------------------------|------------------------|
|-------------------------|------------------------|
|------------------------------|-------------------------------------|
|-----3b5==(3)--(3)-(3)r-------|-----10s12-15-(15)-15b17==(15)-(15)r-|
|-(0)--------------------0h2-0-|-(0)---------------------------------|
|------------------------------|-------------------------------------|
|------------------------------|-------------------------------------|
|------------------------------|-------------------------------------|
|
| Gtr II
|------------------------------|-------------------------------------|
|------------------------------|-------------------------------------|
|------------------------------|-------------------------------------|
|------------------------------|-------------------------------------|
|------------------------------|-------------------------------------|
|------------------------------|-------------------------------------|
|-------------------------------|
|----8b10==(8)r-----------------|
|-----------------9----7-(7)----|
|-------------------------------|
|-------------------------------|
|-------------------------------|
|
|---------------0---------------|
|---12------0-----0-12----------|
|-------------------------------|
|----------------------0-(0)----|
|-7-----------------------------|
|-------------------------------|
|----------------------------------|
|-8b10=====(8)r-5-(5)--0-------8---|
|------------------------7-(7)-7---|
|----------------------------------|
|----------------------------------|
|----------------------------------|
|
|---------------0------------------|
|-------12--0------0--12-----------|
|----------------------------------|
|------------------------0-(0)-----|
|-7--------------------------------|
|----------------------------------|
|--------------------------|------------------------|
|-(8)----------------------|------------------------|
|-(7)----------------------|------------------------|
|--------------------------|------------------------|
|--------------------------|------------------------|
|--------------------------|------------------------|
|
|----------0---------------|--------0---------------|
|-----12-0---0-12----------|---12-0---0-12----------|
|--------------------------|------------------------|
|-----------------0-(0)----|---------------0-(0)----|
|--7-----------------------|-7----------------------|
|--------------------------|------------------------|
  Gtr II
|-------3------------|-------3---------3p2---0h2-----|-------3------------|
|-------3---3-(3)----|-------3---3-(3)-----3-----3---|-------3---3-(3)----|
|-----------2-(2)----|-----------2-(2)-------------2-|-----------2-(2)----|
|-----2-----0-(0)----|-----2-----0-(0)---------------|-----2-----0-(0)----|
|---2----------------|---2---------------------------|---2----------------|
|-0------------------|-0-----------------------------|-0------------------|
|-------3---------3p2---0h2-----|-------3------------|
|-------3---3-(3)-----3-----3---|-------3---3-(3)----|
|-----------2-(2)-------------2-|-----------2-(2)----|
|-----2-----0-(0)---------------|-----2-----0-(0)----|
|---2---------------------------|---2----------------|
|-0-----------------------------|-0------------------|
|-------3---------3p2---0h2-----|-------3------------|
|-------3---3-(3)-----3-----3---|-------3---3-(3)----|
|-----------2-(2)-------------2-|-----------2-(2)----|
|-----2-----0-(0)---------------|-----2-----0-(0)----|
|---2---------------------------|---2----------------|
|-0-----------------------------|-0------------------|
|-------3---------3p2---0h2-----|
|-------3---3-(3)-----3-----3---|
|-----------2-(2)-------------2-|
|-----2-----0-(0)---------------|
|---2---------------------------|
|-0-----------------------------|
|-----0-0--------------|--------0---------------|
|---------0-(0)-(0)----|---12-0---0-12----------|
|----------------------|------------------------|
|---0------------------|---------------0-(0)----|
|----------------------|-7----------------------|
|-0--------------------|------------------------|
|-----0-2-(2)------------|-----0-(0)----------|-------3------------|
|---0---0-(0)-0----------|---0----------------|-------3---3-(3)----|
|------------------------|--------------------|-----------2-(2)----|
|-2-------------0-(0)----|-----------0-(0)----|-----2-----0-(0)----|
|------------------------|-----------0-(0)----|---2----------------|
|------------------------|-0------------------|-0------------------|
|-------3---------3p2---0h2-----|-------3------------|
|-------3---3-(3)-----3-----3---|-------3---3-(3)----|
|-----------2-(2)-------------2-|-----------2-(2)----|
|-----2-----0-(0)---------------|-----2-----0-(0)----|
|---2---------------------------|---2----------------|
|-0-----------------------------|-0------------------|
|-------3---------3p2---0h2-----|-------3------------|
|-------3---3-(3)-----3-----3---|-------3---3-(3)----|
|-----------2-(2)-------------2-|-----------2-(2)----|
|-----2-----0-(0)---------------|-----2-----0-(0)----|
|---2---------------------------|---2----------------|
|-0-----------------------------|-0------------------|
|-------3---------3p2---0h2-----|-------3------------|
|-------3---3-(3)-----3-----3---|-------3---3-(3)----|
|-----------2-(2)-------------2-|-----------2-(2)----|
|-----2-----0-(0)---------------|-----2-----0-(0)----|
|---2---------------------------|---2----------------|
|-0-----------------------------|-0------------------|
|-------3----2---2-0-0-2-0-0-|-0--3-3-3-2-0-0-0-0-0-|
|-------3----3---3-3-3-3-3-3-|-0--0-0-0-0-0-0-0-0-0-|
|------------2---2-2-2-2-2-2-|--------------1-1-1-1-|
|-----2----0-0-0-0-0-0-0-0-0-|-2--2-2-2-2-2-2-2-2-2-|
|---2-2----------------------|-2--2-2-2-2-2-2-2-2-2-|
|-0-0-0----------------------|-0--0-0-0-0-0-0-0-0-0-|
|---------------------------------|-0--3-3-3-3-0-0-0-0-0--|
|-3-3-3-3---------------------3-3-|-0--0-0-0-0-0-0-0-0-0--|
|-3-3-3-3-3-3-(3)-2p0-------0-0-0-|------------1-1-1-1-1--|
|-2-2-2-2-------------0h2-2-------|-2--2-2-2-2-2-2-2-2-2--|
|-3-3-3-3-------------------------|-2--2-2-2-2-2-2-2-2-2--|
|---------------------------------|-0--0-0-0-0-0-0-0-0-0--|
|-0-0-0-0-0-0-(0)-0-0---0-0-0-|---------0-0-2-3-0-----0-0-0-|
|-3-3-3-3-3-3-(3)-3-3s5-5-----|---------0-0-0-0-0h3-3-0-0-0-|
|-0-0-0-0-0-0-(0)-0-0---------|-------------------------0---|
|-2-2-2-2-2-2-(2)-2-2---------|---------2-2-2-2-2---2-------|
|-3-3-3-3-3-3-(3)-3-3---------|-----2-2-2-2-2-2-2---2-------|
|-----------------------------|-6p0-0-0-0-0-0-0-0---0-------|
|-------------------------------|
|-3-3-3-3-3-3-(3)---------------|
|-3-3-3-3-3-3-(3)-2-0-----------|
|-2-2-2-2-2-2-(2)-----2-(2)-2-2-|
|-3-3-3-3-3-3-(3)-----3-(3)-3-3-|
|-------------------------------|
|-------0-2-3-2-0-(0)-0-0-0-|-0-0-0-0-0-0-(0)-0-0----|
|-----0-0-0-0-0-0-(0)-0-0-0-|-3-3-3-3-3-3-(3)-3-3----|
|-----0---------------1-1-1-|-0-0-0-0-0-0-(0)-0-0----|
|-2-2---2---2-2-2-(2)-2-2-2-|-2-2-2-2-2-2-(2)-2-2----|
|-2-2---2---2-2-2-(2)-2-2-2-|-3-3-3-3-3-3-(3)-3-3----|
|-0-0---0---0-0-0-(0)-0-0-0-|------------------------|
|---0----------------|--------0---------------|--------0---------------|
|-----0---0----------|---12-0---0-12----------|---12-0---0-12----------|
|-------4------------|------------------------|------------------------|
|-----------0-(0)----|---------------0-(0)----|---------------0-(0)----|
|--------------------|-7----------------------|-7----------------------|
|-0------------------|------------------------|------------------------|
|--------0---------------|-------3------------|-------3---------3p2---0h2-----|
|---12-0---0-12----------|-------3---3-(3)----|-------3---3-(3)-----3-----3---|
|------------------------|-----------2-(2)----|-----------2-(2)-------------2-|
|---------------0-(0)----|-----2-----0-(0)----|-----2-----0-(0)---------------|
|-7----------------------|---2----------------|---2---------------------------|
|------------------------|-0------------------|-0-----------------------------|
|-------3------------|-------3---------3p2---0h2-----|-------3------------|
|-------3---3-(3)----|-------3---3-(3)-----3-----3---|-------3---3-(3)----|
|-----------2-(2)----|-----------2-(2)-------------2-|-----------2-(2)----|
|-----2-----0-(0)----|-----2-----0-(0)---------------|-----2-----0-(0)----|
|---2----------------|---2---------------------------|---2----------------|
|-0------------------|-0-----------------------------|-0------------------|
|-------3---------3p2---0h2-----|-------3------------|
|-------3---3-(3)-----3-----3---|-------3---3-(3)----|
|-----------2-(2)-------------2-|-----------2-(2)----|
|-----2-----0-(0)---------------|-----2-----0-(0)----|
|---2---------------------------|---2----------------|
|-0-----------------------------|-0------------------|
|-------3----2---2-0-0-2-0-0-|-0--3-3-3-2-0-0-0-0-0-|
|-------3----3---3-3-3-3-3-3-|-0--0-0-0-0-0-0-0-0-0-|
|------------2---2-2-2-2-2-2-|--------------1-1-1-1-|
|-----2----0-0-0-0-0-0-0-0-0-|-2--2-2-2-2-2-2-2-2-2-|
|---2-2----------------------|-2--2-2-2-2-2-2-2-2-2-|
|-0-0-0----------------------|-0--0-0-0-0-0-0-0-0-0-|
|---------------------------------|-0--3-3-3-3-0-0-0-0-0--|
|-3-3-3-3---------------------3-3-|-0--0-0-0-0-0-0-0-0-0--|
|-3-3-3-3-3-3-(3)-2p0-------0-0-0-|------------1-1-1-1-1--|
|-2-2-2-2-------------0h2-2-------|-2--2-2-2-2-2-2-2-2-2--|
|-3-3-3-3-------------------------|-2--2-2-2-2-2-2-2-2-2--|
|---------------------------------|-0--0-0-0-0-0-0-0-0-0--|
|-0-0-0-0-0-0-(0)-0-0---0-0-0-|---------0-0-2-3-0-----0-0-0-|
|-3-3-3-3-3-3-(3)-3-3s5-5-----|---------0-0-0-0-0h3-3-0-0-0-|
|-0-0-0-0-0-0-(0)-0-0---------|-------------------------0---|
|-2-2-2-2-2-2-(2)-2-2---------|---------2-2-2-2-2---2-------|
|-3-3-3-3-3-3-(3)-3-3---------|-----2-2-2-2-2-2-2---2-------|
|-----------------------------|-6p0-0-0-0-0-0-0-0---0-------|
|-------------------------------|
|-3-3-3-3-3-3-(3)---------------|
|-3-3-3-3-3-3-(3)-2-0-----------|
|-2-2-2-2-2-2-(2)-----2-(2)-2-2-|
|-3-3-3-3-3-3-(3)-----3-(3)-3-3-|
|-------------------------------|
|-------0-2-3-2-0-(0)-0-0-0-|-0-0-0-0-0-0-(0)-0-0----|
|-----0-0-0-0-0-0-(0)-0-0-0-|-3-3---3-3-0-(0)-3-3----|
|-----0---------------1-1-1-|-0-0---0-0-------0-0----|
|-2-2---2---2-2-2-(2)-2-2-2-|-2-2---2-2-------2-2----|
|-2-2---2---2-2-2-(2)-2-2-2-|-3-3---3-3-------3-3----|
|-0-0---0---0-0-0-(0)-0-0-0-|------------------------|
  Gtr I
|------------------------|--------------------------------|
|---5-5-(5)---0-3--5-----|-0h=3-5---(5)----0h3--5---------|
|------------------------|--------------------------2b4===|
|------------------------|--------------------------------|
|------------------------|--------------------------------|
|------------------------|--------------------------------|
|
| Gtr II
|-0-0--------------------|--------0-----------------------|
|-0---0--0----3---(3)----|---12-0----0--12----------------|
|-----------0-2---(2)----|--------------------------------|
|-2-----------0---(0)----|-----------------0---(0)--------|
|-2----------------------|-7------------------------------|
|-0----------------------|--------------------------------|
|-------------------------------|
|-------------------------------|
|-(2)r----------------2---0h2---|
|-----------------------------0-|
|-------------------------------|
|-------------------------------|
|
|-----------0-------------------|
|------12-0---0-12--------------|
|-------------------------------|
|------------------0-(0)--------|
|--7----------------------------|
|-------------------------------|
|------------------------------|---12---7-----------------|--------|
|------------------------------|-7------------------------|--------|
|-0---------------(0)-0-0-0-0--|------7-----5-(5)---------|--------|
|------------------------------|----------7---------5-----|--------|
|------------------------------|------------------7-----5-|-(5)----|
|------------------------------|----------------------7---|--------|
|
|--------0---------------------|--------------------------|--------|
|---12-0---0-12----------------|--------------------------|--------|
|------------------------------|--------------------------|--------|
|---------------0-(0)----------|--------------------------|--------|
|-7----------------------------|--------------------------|--------|
|------------------------------|--------------------------|--------|
                                          Gtr II
|---12---7-----------------|------------|-------3------------|
|-7------------------------|------------|-------3---3-(3)----|
|------7-----5-(5)---------|------------|-----------2-(2)----|
|----------7---------5-----|------------|-----2-----0-(0)----|
|------------------7-----5-|-(5)--------|---2----------------|
|----------------------7---|------------|-0------------------|
|-------3---------3p2---0h2-----|-------3------------|
|-------3---3-(3)-----3-----3---|-------3---3-(3)----|
|-----------2-(2)-------------2-|-----------2-(2)----|
|-----2-----0-(0)---------------|-----2-----0-(0)----|
|---2---------------------------|---2----------------|
|-0-----------------------------|-0------------------|
|-------3---------3p2---0h2-----|-------3------------|
|-------3---3-(3)-----3-----3---|-------3---3-(3)----|
|-----------2-(2)-------------2-|-----------2-(2)----|
|-----2-----0-(0)---------------|-----2-----0-(0)----|
|---2---------------------------|---2----------------|
|-0-----------------------------|-0------------------|
|-------3---------3p2---0h2-----|-------3------------|
|-------3---3-(3)-----3-----3---|-------3---3-(3)----|
|-----------2-(2)-------------2-|-----------2-(2)----|
|-----2-----0-(0)---------------|-----2-----0-(0)----|
|---2---------------------------|---2----------------|
|-0-----------------------------|-0------------------|
|-------3----2---2-0-0-2-0-0-|-0--3-3-3-2-0-0-0-0-0-|
|-------3----3---3-3-3-3-3-3-|-0--0-0-0-0-0-0-0-0-0-|
|------------2---2-2-2-2-2-2-|--------------1-1-1-1-|
|-----2----0-0-0-0-0-0-0-0-0-|-2--2-2-2-2-2-2-2-2-2-|
|---2-2----------------------|-2--2-2-2-2-2-2-2-2-2-|
|-0-0-0----------------------|-0--0-0-0-0-0-0-0-0-0-|
|---------------------------------|-0--3-3-3-3-0-0-0-0-0--|
|-3-3-3-3---------------------3-3-|-0--0-0-0-0-0-0-0-0-0--|
|-3-3-3-3-3-3-(3)-2p0-------0-0-0-|------------1-1-1-1-1--|
|-2-2-2-2-------------0h2-2-------|-2--2-2-2-2-2-2-2-2-2--|
|-3-3-3-3-------------------------|-2--2-2-2-2-2-2-2-2-2--|
|---------------------------------|-0--0-0-0-0-0-0-0-0-0--|
|-0-0-0-0-0-0-(0)-0-0---0-0-0-|---------0-0-2-3-0-----0-0-0-|
|-3-3-3-3-3-3-(3)-3-3s5-5-----|---------0-0-0-0-0h3-3-0-0-0-|
|-0-0-0-0-0-0-(0)-0-0---------|-------------------------0---|
|-2-2-2-2-2-2-(2)-2-2---------|---------2-2-2-2-2---2-------|
|-3-3-3-3-3-3-(3)-3-3---------|-----2-2-2-2-2-2-2---2-------|
|-----------------------------|-6p0-0-0-0-0-0-0-0---0-------|
|-------------------------------|
|-3-3-3-3-3-3-(3)---------------|
|-3-3-3-3-3-3-(3)-2-0-----------|
|-2-2-2-2-2-2-(2)-----2-(2)-2-2-|
|-3-3-3-3-3-3-(3)-----3-(3)-3-3-|
|-------------------------------|
|-------0-2-3-2-0-(0)-0-0-0-|-0-0-0-0-0-0-(0)-0-0-(0)-0--|
|-----0-0-0-0-0-0-(0)-0-0-0-|-3-3-3-3-3-0-(0)-3-3-(3)-0--|
|-----0---------------1-1-1-|-0-0-0-0-0-------0-0-(0)----|
|-2-2---2---2-2-2-(2)-2-2-2-|-2-2-2-2-2-------2-2-(2)----|
|-2-2---2---2-2-2-(2)-2-2-2-|-3-3-3-3-3-------3-3-(3)----|
|-0-0---0---0-0-0-(0)-0-0-0-|----------------------------|
|-----0--------------|--------0---------------|--------0---------------|
|---0---0-0----------|---12-0---0-12----------|---12-0---0-12----------|
|--------------------|------------------------|------------------------|
|-2---------0-(0)----|---------------0-(0)----|---------------0-(0)----|
|-2------------------|-7----------------------|-7----------------------|
|-0------------------|------------------------|------------------------|
|--------0---------------|
|---12-0---0-12----------|
|------------------------|
|---------------0-(0)----|
|-7----------------------|
|------------------------|
  Gtr I
|----------------------------------------------------------------------|
|-15b17-15p12-15p12-15-12-----------------12---------------------------|
|----------------------------14b15==(14)r----14-12h14-14b16r(14)-14p12-|
|-------------------------14-------------------------------------------|
|----------------------------------------------------------------------|
|----------------------------------------------------------------------|
|---------------------------------------------------------------------------------|
|---------------------------------------------------------------------------------|
|----12b12.5----------------------------------------------------------------------|
|-14---------14-12h14p12-------12-------------------------------------------------|
|------------------------13h14----12-12p10-12-12b14-12p10----12----------10h12p10-|
|---------------------------------------------------------12----12-10h12----------|
|-------------------------------15-15--15b17-15-12-|
|-------------------------15-------15--------------|
|-------------12-14-14s16----16--------------------|
|-------12h14--------------------------------------|
|-12s14--------------------------------------------|
|--------------------------------------------------|
|--------------------------------------------|
|--------------------------------------------|
|------------------------------------7-9-(9)-|
|--7-5-7b9==(7)r-7p5-----------5h7s9---------|
|--------------------7-7---7-5---------------|
|------------------------7-------------------|
|----------------------------------------------------------------15b17-|
|--------------------------15------------------------------------------|
|-------12----14b16==(14)r----14b16==(14)r-14----12--------------------|
|-12-14----14---------------------------------14----14-(14)-(14)-------|
|----------------------------------------------------------------------|
|----------------------------------------------------------------------|
|-15p12----12---------------------------15b17-|
|-------15----15-15b17==(15)r-15-(15)---------|
|---------------------------------------------|
|---------------------------------------------|
|---------------------------------------------|
|---------------------------------------------|
|-15p12----12---------------12-------12-------12h15s12----12h15----12h15p12-|
|-------15----15-(15)--(15)----15b17----15b17----------15-------15----------|
|---------------------------------------------------------------------------|
|---------------------------------------------------------------------------|
|---------------------------------------------------------------------------|
|---------------------------------------------------------------------------|
|----12h15p12----12h15p12----12h15p12----12h15p12----12h15p12-15b17---|
|-15----------15----------15----------15----------15------------------|
|---------------------------------------------------------------------|
|---------------------------------------------------------------------|
|---------------------------------------------------------------------|
|---------------------------------------------------------------------|
|---15-----------------------------------------------------------|
|------15--------------------------------------------------------|
|---------14b16-14p12----12b14==(12)r-12-------------------------|
|---------------------14-----------------14p12h14p12-------12----|
|----------------------------------------------------13h14----14-|
|----------------------------------------------------------------|
|-------------------------------------------------------12-----------|
|----------------------------------------------------12----15b17-15--|
|-------12-12-(12)-------------12-14-12-14b16==(14)r-----------------|
|-------12-12-(12)-------12h14---------------------------------------|
|-13-12------------12s14---------------------------------------------|
|--------------------------------------------------------------------|
|--------------------------------------15b17---|
|-(15)-15b18-15-12-------12--------------------|
|------------------14b16----14-12-(12)---------|
|----------------------------------------------|
|----------------------------------------------|
|----------------------------------------------|
|--15b17-15----12-------------------------------------------|
|-----------15----15-12-15b17-15p12-------------------------|
|-----------------------------------14b16-12-14-14-12-(12)--|
|-----------------------------------------------------------|
|-----------------------------------------------------------|
|-----------------------------------------------------------|
|-------------------------------------------------------15b17-15----|
|------15b17-15p12--------------12-------------------------------x--|
|-(12)-------------14b15==(14)r----14-12-14-14b16-14p12-------------|
|-------------------------------------------------------------------|
|-------------------------------------------------------------------|
|-------------------------------------------------------------------|
|--15b17==(15)r-12-15-12-15-12-15-12-15-12----12-|
|------------------------------------------15----|
|------------------------------------------------|
|------------------------------------------------|
|------------------------------------------------|
|------------------------------------------------|
|----12h15p12----12h15p12----------12h15p12----12h15p12----12h15p12----12h15p12----x---|
|-15----------15----------15-12-15----------15----------15----------15----------15---x-|
|--------------------------------------------------------------------------------------|
|--------------------------------------------------------------------------------------|
|--------------------------------------------------------------------------------------|
|--------------------------------------------------------------------------------------|
|------------------------------------------|
|--15b17==(15)r-15-15-----(15)-(15)----15\-|
|------------------14b16==(14)-(14)r---14\-|
|------------------------------------------|
|------------------------------------------|
|------------------------------------------|
|---------------------------------|----------------------|
|----5--3-------------------------|----------------------|
|--6-6----2b4-2p0-----0-----------|-------------7-(7)----|
|-----------------0h2-------------|-------6-6-x-6-(6)----|
|---------------------------------|---5h7----------------|
|-----------------------3b4==(3)r-|-0--------------------|
|--------------------|--------------------|
|-8------------------|---8----------------|
|---7------------7-7-|-----7--------7-7-0-|
|-----6--------6-----|-------6----6-------|
|-------7--5s7-------|----------7---------|
|--------------------|-x------------------|
|------------------|-------------------|
|-8-8------------8-|-(8)-8----------8--|
|-----7--------7---|-------7-----------|
|-------6----6-----|---------6----6----|
|----------7-------|------------7------|
|------------------|-------------------|
|--------------------|----------------------------|--------*|
|-8b9==(8)r-5-----8--|-(8)-7-5-7p5--(5)---5p3-(3)-|-(3)----*|
|--------------------|----------------------------|--------*|
|--------------------|----------------------------|--------*|
|--------------------|----------------------------|--------*|
|--------------------|----------------------------|--------*|
Tablature Legend
----------------
 h   - hammer-on
 p   - pull-off
 b   - bend
 pb  - pre-bend
 r   - bend release (if no number after the r, then release immediately)
 /\  - slide into or out of (from/to "nowhere")
 s   - legato slide
 S   - shift slide
  - natural harmonic
[n]  - artificial harmonic
n(n) - tapped harmonic
 ~   - vibrato
 tr  - trill
 T   - tap
 TP  - trem. picking
 PM  - palm muting
\n/  - tremolo bar dip; n = amount to dip
 \n  - tremolo bar down
 n/  - tremolo bar up
/n\  - tremolo bar inverted dip
 =   - hold bend; also acts as connecting device for hammers/pulls
   - volume swell (louder/softer)
 x   - on rhythm slash represents muted slash
 o   - on rhythm slash represents single note slash

Misc Legend
-----------
 |  - bar
||  - double bar
||o - repeat start
o|| - repeat end
*|  - double bar (ending)
 :  - bar (freetime)
 $  - Segno
 &  - Coda


Important: The song above is NOT stored on the Chordie server. The original song is hosted at www.xguitar.com. Chordie works as a search engine and provides on-the-fly formatting. Chordie does not index songs against artists/composers will. To remove this song please click here.

This song is displayed as text-only. Transposing and tuning is only available for chordpro-songs.

Login - add to songbook

Rating click stars to rate

Layout
Accuracy

SHARE PAGE  




You need to log in to post comments