Guitar Tabs, Chords and Lyrics


Angry Chair  Alice In Chains

e    ---------------


B    ---------------


G    ---------------	


D    ---------------


A    -----2-----3b--


E    --0-----0------


e    --0-0-0--


B    --0-0-0--


G    --x-x-x--


D    --2-2-2--


A    --2-2-2--


E    --0-0-0--

       [F5]             [E5]                                                             
e    --------------------------
B    --------------------------
G    --------------------------
D    --3--3--3--3---2--2-------
A    --3--3--3--3---2--2-------
E    --1--1--1--1---0--0---5b--

What do I see 'cross the way?... Hey...
Jerry plays the straight chords below
       [F]             [E]                                                             
e    --1--1--1--1---0--0-------
B    --1--1--1--1---0--0-------
G    --2--2--2--2---1--1-------
D    --3--3--3--3---2--2-------
A    --3--3--3--3---2--2-------
E    --1--1--1--1---0--0---5b--

CHORUS
       [A5]    [B5]          [F#5]            [G5]                                                
e    -------------------|------------------|
B    -------------------|------------------|
G    --2---4---4--4-----|------------------|
D    --2---4---4--4--4--|--4--4--5---5--5--|
A    --0---2---2--2--4--|--4--4--5---5--5--|
E    ----------------2--|--2--2--3---3--3--|

I don't mind yeah...
       [A5]         [B5]            [E]                                                     
e    --------------------|--0--0-0------------|
B    --------------------|--0--0-0------------|
G    --2--2--2--4--4--4--|--1--1-1------------|
D    --2--2--2--4--4--4--|--2--2-2------------|
A    --0--0--0--2--2--2--|--2--2-2------------|
E    --------------------|--0--0-0--5b-5b-5b--|

SOLO
e    -----------------------|---------------------------------------------|
B    -----------------------|------8---8---8-11b-11b--10-10p8---8---------|
G    --------------7-s9-9v--|--7h9---9---9--------------------9---9-7h9v--|
D    ------5-7-7s9----------|---------------------------------------------|
A    --5h7------------------|---------------------------------------------|
E    -----------------------|---------------------------------------------|
e    -----------------|------------------------------------------|
B    -----------------|------------------------------------------|
G    --9p7-7----------|------------------------------------------|
D    --------9-9p7-5--|--7b-7b-7br5------------------------------|
A    -----------------|-------------7-5h7-7-7--5---5---5-5h7-7v--|
E    -----------------|--------------------------7---7-----------|
e    -----------------------|-----------------------10-------|
B    -----------------------|----7-8-10-11-11b-11b------11r--|
G    --------------7-s9-9v--|--9-----------------|-----------|
D    ------5-7-7s9----------|-------------------hold---------|
A    --5h7------------------|-------------------bend---------|
E    -----------------------|--------------------------------|
e    -------------------------------------|----------------|
B    --8-10-8-7-8--7h8-7--8-7-------------|----------------|
G    -------------------------9-7-9v--7v--|--7-------------|
D    -------------------------------------|----9-7-5-7-7b--|
A    -------------------------------------|----------------|
E    -------------------------------------|----------------|


Important: The song above is NOT stored on the Chordie server. The original song is hosted at www.xguitar.com. Chordie works as a search engine and provides on-the-fly formatting. Chordie does not index songs against artists'/composers' will. To remove this song please click here.

Text color:
Chord color:
Chord grids: 
Font size:    
Page size: 

A5 B5 E E5 F F#5 F5 G5
variations - click chord images

Login - add to songbook

Transpose chords

Tuning

Rating click stars to rate

Layout
Accuracy

SHARE PAGE  




You need to log in to post comments