Guitar Tabs, Chords and Lyrics


Brother   Alice In Chains



Brother by Alice In Chains
Submitted by Gabe Marin (ACebdQmNr@aol.com)

Here is the opening figure to "Brother"

e flat tuning

e--------------------------------------------------------------------------
b------------------------5b6-------------------------5b6-------8b9---------
g------------------------------6b7-------------------------6b7-------------
d---------------------5----------------------------------------------------
a---------------5-7---------------------------5--7-------------------------
e----3--5--8------------------------3-5--8---------------------------------

The rest of the other tab is correct from here on
===============================================================================

Any questions/comments/praises?  Email me! Thanks.
You MUST drop your guitar into a flat E tuning (one-half step
down on each string).  As well, listen to the album for exact timing.
Intro
-0----0---0-0--0---0--0---0-0--|---0--0--0--0-------------------------------
-2----2---2-2--2---2--2---2-2--|---2--2--2--2--3-/-5--3--2------------------
-2----2---2-2--2---2--2---2-2--|---2--2--2--2--0-/-0--0--2------------------
-2----2---2-2--2---2--2---2-2--|---2--2--2--2--3-/-5--3--2------------------
-0----0---0-0--0---0--0---0-0--|---0--0--0--0--0-/-0--0--0------------------
-------------------------------|--------------------------------------------
Repeat Intro 4 times and play Intro.2 along with Intro after 4th measure
Intro.2 
------------------------|---------------------------------------------------
----5^(1/2)-------------|-----5^(1/2)-----------8^(1/2)---------------------
--------------6^(1/2)---|--------------6^(1/2)------------------------------
------------------------|---------------------------------------------------
------------------------|---------------------------------------------------
------------------------|---------------------------------------------------
Repeat Intro along with Intro.2 until CHORUS
Chorus
------

Chord Progression       
F  F  F F  F  F F  F  F F F F F F  A  Asus4 Asus4 Asus4  Asus4  Asus4

A A  A  A  Asus4 Asus4  Asus4 Asus4 Asus4  A A  A A A A  F F F  F F

F F  F  F F  F F  F F F  G5  G5 G5 G5  G5 G5 G5 G5

Return to Verses or Solo
Solo
----
                                                |--hold bend-----|

     ~~~~~                             ~~~~                               ~~~
-------------------------------|---------------------5---5-|--5--------------
-------------------------------|-------------------5---5---|-----5-8^(1)-8---
----------------5--7-7^(1/2)r--|--5---5-----7^(1)----------|-----------------
--5h7-------5h7----------------|----7----------------------|-----------------
-------------------------------|---------------------------|-----------------
-------------------------------|---------------------------|-----------------

                                                              |--hold bend-|
                                                ~~~
----------------------------------------------------|------------------------
-7--5--7^(1/2)--5-------------------5^(1/4)---------|------------------------
------------------7--5-7^(1/2)r-5---5^(1/4)---------|------------------------
----------------------------------7----------5h7----|------------------------
----------------------------------------------------|--5--3^(1)------3---3---
----------------------------------------------------|------------------------

                             ~~~~~~~                ~~~~
---------------------------------------------------------|-------------------
---------------------------------------------------------|-7^(1/2)-----------
--------------------5-7^(1)r--------7^(1/2)r--5----5-----|-7^(1)-------------
--------------5--7------------------------------7--------|-------------------
----------5h7--------------------------------------------|-------------------
--5--3--5------------------------------------------------|-------------------

                                                     ~~~~~~~        ~~~~~~~~~
-------------------------------------------------------------|---------------
-7^(1/2)r---------------7^(1/2)-7^(1/2)r---------------------|---------------
-7^(1)-----7^(1)r--5----7^(1)---7^(1)r-----7^(1)r-5----------|---------------
---------------------7------------------------------7--------|--5--7---------
-------------------------------------------------------------|---------------
-------------------------------------------------------------|---------------
                                               ~~~~~~
--------5---8^(1)r---(8)--8--5--------------------|--------------------------
--------5----------------------8^(1)r----7h8--7---|5-------------------------
-----5--------------------------------------------|--7^(1/2)-7-5-----5-7^(1/2)
-5h7----------------------------------------------|--------------5h7---------
--------------------------------------------------|--------------------------
--------------------------------------------------|--------------------------
End solo...

Repeat Intro until end of song




Important: The song above is NOT stored on the Chordie server. The original song is hosted at www.xguitar.com. Chordie works as a search engine and provides on-the-fly formatting. Chordie does not index songs against artists/composers will. To remove this song please click here.

This song is displayed as text-only. Transposing and tuning is only available for chordpro-songs.

Login - add to songbook

Rating click stars to rate

Layout
Accuracy

SHARE PAGE  




You need to log in to post comments