"yes"; ?> Down In A Hole by Alice In Chains - guitar chords, guitar tabs and lyrics - chordie

Down In A Hole

Alice In Chains

finger style
 AmG5D
e    --------------------3------2--------
B    --0h1--------1--------3------3------
G    ------2--------2--------0------2----
D    --------2--------2---------0-----0--
A    --0-------0-------------------------
E    --------------------3---------------

PRE-CHORUS - Scott plays this 8 times
Jerry plays something higher up the fret board but returns to the G & D chords.
 Asus2GD
e    --0--------0-0--3--3-3--2--2-2--
B    --0-1-0----0-0--3--3-3--3--3-3--
G    --2-----2--2-2--0--0-0--2--2-2--
D    --2--------2-2--0--0-0--0--0-0--
A    --0-------------2--2-2----------
E    ----------------3--3-3----------

Down in a hole and I don't know if I can be saved...
CHORUS
Play this 4 times
 DmDsus2Cadd9G
e    --0--1--0--0-----0--0--0--------0-----
B    --3--3--3--3--3-----3-----3--------3--
G    --2--2--2--2--------0--------0--------
D    --0--0--0--0--------2--------0--------
A    --0-----------------3--------2--------
E    -----------------------------3--------

Down in a hole, losing my soul...
Play this once
 Dsus2EFC5G5
e    --0--0--1-------------------------------------------------
B    --3--0--1-------------------------------------------------
G    --2--1--2--5-5--5--5--5--5--5--5--------------------------
D    --0--2--3--5-5--5--5--5--5--5--5--5-5---------------------
A    --0--2--3--3-3--3--3--3--3--3--3--5-5--5-5-5-5b6r5-5-3-3--
E    -----0--1-------------------------3-3--3-3-3-3b4r3-3-1-1--

I'd like to fly, but my wings have been so
Play this next part 2 times
Note: At the end of the song, play this 4 times and end with an Asus2 chord.
 Asus2AmGD
e    --0----------------3-3----2---------
B    --0-1-------1------3-3----3--3------
G    --2---2-------2----0-0-0--2----2----
D    --2-----2-------2--0-0-0--0------0--
A    --0-------0--------2-2-2------------
E    -------------------3-3-3------------

denied...
At 4:23 - Scott plays this 8 times during the last chorus play
Substitute the 8th note (13) with a 12 on the 2nd,4th,5th and 7th times.
e    ----------13----------12----------10------------
B    ------15----------15----------13------7--7h8p7--
G    --14----------14----------12--------------------
D    ------------------------------------------------
A    ------------------------------------------------
E    ------------------------------------------------























Am Asus2 C5 Cadd9 D Dm Dsus2 E F G G5
variations - click chord images
Transpose chords:
Tuning:
Cool service:
View: Size:
A  A  A
Rating:
Layout:
  • Currently 2.5/5 Stars.
  • 1
  • 2
  • 3
  • 4
  • 5
 
Accuracy:
  • Currently 2.6/5 Stars.
  • 1
  • 2
  • 3
  • 4
  • 5
 
click stars to rate
Chordie recommends:
Check out JamPlay.com for online video guitar lessons
Songbook:
Login to add this song to your songbook
Support the artist
Preview/buy this song
MSN Music
Why this non-profit ad?

 
login to add comments/video/corrections