Guitar Tabs, Chords and Lyrics


All on Black    Alkaline Trio



-------------------------------------------------------------------------------------
Alkaline Trio – All On Black
-------------------------------------------------------------------------------------
Song: All On Black
Artist: Alkaline Trio
Album: Good Mourning
Tabber: Mike Hegarty

Intro
E|---------------------------------------------------------|
B|---------------------------------------------------------|
G|-9-9-9-7-7-7-9-9-9-7-7-7-5-5-4-4-10-10-10-10-10-10-10-10-|
D|---------------------------------10-10-10-10-10-10-10-10-|
A|-7-7-7-7-7-7-7-7-7-7-7-7-7-7-7-7--8--8--8--8--8--8--8--8-|
E|-5-5-5-5-5-5-5-5-5-5-5-5-5-5-5-5-------------------------|

Verse
E|-------------------------------|
B|-------------------------------|
G|-------------------------------|
D|-7~------3~------7~------3---5-|
A|-7~------3~------7~------3---5-|
E|-5~------1~------5~------1---3-|

Verse 2 (pm)
E|-----------------------------------------------------------------|
B|-----------------------------------------------------------------|
G|-----------------------------------------------------------------|
D|-7-7-7-7-7-7-7-7-7-7-7-7-7-7-7-7-3-3-3-3-3-3-3-3-3-3-3-3-3-3-3-3-|
A|-7-7-7-7-7-7-7-7-7-7-7-7-7-7-7-7-3-3-3-3-3-3-3-3-3-3-3-3-3-3-3-3-|
E|-5-5-5-5-5-5-5-5-5-5-5-5-5-5-5-5-1-1-1-1-1-1-1-1-1-1-1-1-1-1-1-1-|

E|-----------------------------------------------------------------|
B|-----------------------------------------------------------------|
G|-----------------------------------------------------------------|
D|-7-7-7-7-7-7-7-7-7-7-7-7-7-7-7-7-3-3-3-3-3-3-3-3-5-5-5-5-5-5-5-5-|
A|-7-7-7-7-7-7-7-7-7-7-7-7-7-7-7-7-3-3-3-3-3-3-3-3-5-5-5-5-5-5-5-5-|
E|-5-5-5-5-5-5-5-5-5-5-5-5-5-5-5-5-1-1-1-1-1-1-1-1-3-3-3-3-3-3-3-3-|

Pre Chorus
E|--------------------------------------|
B|--------------------------------------|
G|--------------------------------------|
D|-3~-----5~-----3~-----5-5-5-5-5-5-5-5-|
A|-3~-----5~-----3~-----5-5-5-5-5-5-5-5-|
E|-1~-----3~-----1~-----3-3-3-3-3-3-3-3-|

Chorus
E|-----------------------------------------------------------------|
B|-----------------------------------------------------------------|
G|-----------------------------------------------------------------|
D|-7-7-7-7-7-7-7-7-7-7-7-7-7-7-7-7-3-3-3-3-3-3-3-3-5-5-5-5-5-5-5-5-|
A|-7-7-7-7-7-7-7-7-7-7-7-7-7-7-7-7-3-3-3-3-3-3-3-3-5-5-5-5-5-5-5-5-|
E|-5-5-5-5-5-5-5-5-5-5-5-5-5-5-5-5-1-1-1-1-1-1-1-1-3-3-3-3-3-3-3-3-|

Final Chorus (pm)
E|-----------------------------------------------------------------|
B|-----------------------------------------------------------------|
G|-5-5-5-5-5-5-5-5-5-5-5-5-5-5-5-5---------------------------------|
D|-5-5-5-5-5-5-5-5-5-5-5-5-5-5-5-5-3-3-3-3-3-3-3-3-3-3-3-3-3-3-3-3-|
A|-3-3-3-3-3-3-3-3-3-3-3-3-3-3-3-3-3-3-3-3-3-3-3-3-3-3-3-3-3-3-3-3-|
E|---------------------------------1-1-1-1-1-1-1-1-1-1-1-1-1-1-1-1-|

E|-----------------------------------------------------------------|
B|-----------------------------------------------------------------|
G|-----------------------------------------------------------------|
D|-7-7-7-7-7-7-7-7-7-7-7-7-7-7-7-7-5-5-5-5-5-5-5-5-3-3-3-3-3-3-3-3-|
A|-7-7-7-7-7-7-7-7-7-7-7-7-7-7-7-7-5-5-5-5-5-5-5-5-3-3-3-3-3-3-3-3-|
E|-5-5-5-5-5-5-5-5-5-5-5-5-5-5-5-5-3-3-3-3-3-3-3-3-1-1-1-1-1-1-1-1-|

Outro
E|----------------------------------------------|
B|----------------------------------------------|
G|-10-10-10--9--9--9--7--7--7--7--7--9--9--7--7-|
D|-10-10-10-10-10-10-10-10-10-10-10-10-10-10-10-|
A|----------------------------------------------|
E|----------------------------------------------|

End
E|--------------------------------------|
B|--------------------------------------|
G|-5-5-5-2-2-2-5-5-5-4-4-4-2-2----------|
D|-5-5-5-2-2-2-5-5-5-4-4-4-2-2-5-5---7~-|
A|-3-3-3-0-0-0-3-3-3-2-2-2-0-0-5-5---7~-|
E|-----------------------------3-3---5~-|

Order

Intro           x2
Verse           x2
Intro           x2
Verse 2         x2
Pre Chorus      x1
Chorus          x4
Intro           x2
Verse           x2
Pre Chorus      x1
Chorus          x4
Final Chorus    x2
Outro           x6


Important: The song above is NOT stored on the Chordie server. The original song is hosted at www.xguitar.com. Chordie works as a search engine and provides on-the-fly formatting. Chordie does not index songs against artists'/composers' will. To remove this song please click here.

This song is displayed as text-only. Transposing and tuning is only available for chordpro-songs.

Login - add to songbook

Rating click stars to rate

Layout
Accuracy

SHARE PAGE  




You need to log in to post comments