Guitar Tabs, Chords and Lyrics


Radio    Alkaline Trio



BAND : Alkaline Trio
SONG : Radio
TABBER : Brian Whitebread (z3sk8r13@aol.com)

Its all here just listen to the song to get the
rhythm and to figure out when to play everything.

INTRO
|-----------------------------------------------------------------|
|-----------------------------------------------------------------|
|-----11-----11-----9---7---9-11-----11-----11-------9-------9----|
|-0-0----0-0----0-0---0---0------9-9----9-9----9-7-7---7-0-7---7--|
|-----------------------------------------------------------------|
|-----------------------------------------------------------------|


|---------------------------------------------------------|
|---------------------------------------------------------|
|-----11-----11-----9---7---9-11-----11-----11-------9-9--|
|-0-0----0-0----0-0---0---0------9-9----9-9----9-7-7---7--|
|---------------------------------------------------------|
|---------------------------------------------------------|

VERSE
|----------------------------------------------------------------------------|
|----------------------------------------------------------------------------|
|-11-11-11-11-11-11-11-11-9-9-7-7-9-11-11-11-11-11-11-11-11-9-9-9-9-9-9-9-9--|
|--0--0--0--0--0--0--0--0-0-0-0-0-0--9--9--9--9--9--9--9--9-7-7-7-7-7-7-7-7--|
|----------------------------------------------------------------------------|
|----------------------------------------------------------------------------|

FILL
|--------------------|
|--------------------|
|-7-7-7-7-7-7-7-7-9--|
|-5-5-5-9-5-5-5-5-7--|
|--------------------|
|--------------------|

CHORUS
|----------------------------------------------------------------------|
|----------------------------------------------------------------------|
|-7-7-7-7-7-7-7-7-7-----------------7-7-7-7-7-7-7-7-4-4-xxxx-2-2-xxxx--|
|-7-7-7-7-7-7-7-7-7-7-7-7-7-7-7-7-7-7-7-7-7-7-7-7-7-4-4-xxxx-2-2-xxxx--|
|-5-5-5-5-5-5-5-5-5-7-7-7-7-7-7-7-7-5-5-5-5-5-5-5-5-2-2-xxxx-0-0-xxxx--|
|-------------------5-5-5-5-5-5-5-5------------------------------------|

BRIDGE
|--------------------------------------------|
|--------------------------------------------|
|-8-8-8-8-8-8-8-8-8-8-8-8-8-8-8-8-8-8-8-8-7--|
|-8-8-8-8-8-8-8-8-8-8-8-8-8-8-8-8-8-8-8-8-7--|
|-6-6-6-6-6-6-6-6-6-6-6-6-6-6-6-6-6-6-6-6-6--|
|--------------------------------------------|

END - OUTRO
|--------------------------------------------------------------------------------------------------------------------------------------------------------------------------------------------------------------|
|--------------------------------------------------------------------------------------------------------------------------------------------------------------------------------------------------------------|
|-11-11-11-11-11-11-11-11-12-12-12-11-11-11-11-11-12-12-12-11-11-11-11-11-9-9-9-9-9-9-9-9-11-11-11-11-11-11-11-11-12-12-12-11-11-11-11-11-12-12-12-11-11-11-11-11-9-9-9-9-9-9-9-9-7-7-7-7-7-7-7-7-7-7-7-7-7-9--|
|--0--0--0--0--0--0--0--0--0--0--0--0--0--0--0--0--0--0--0--0--0--0--0--0-7-7-7-7-7-7-7-7--0--0--0--0--0--0--0--0--0--0--0--0--0--0--0--0--0--0--0--0--0--0--0--0-7-7-7-7-7-7-7-7-5-5-5-5-5-5-5-5-5-5-5-5-5-7--|
|--------------------------------------------------------------------------------------------------------------------------------------------------------------------------------------------------------------|


Important: The song above is NOT stored on the Chordie server. The original song is hosted at www.xguitar.com. Chordie works as a search engine and provides on-the-fly formatting. Chordie does not index songs against artists'/composers' will. To remove this song please click here.

This song is displayed as text-only. Transposing and tuning is only available for chordpro-songs.

Login - add to songbook

Rating click stars to rate

Layout
Accuracy

SHARE PAGE  




You need to log in to post comments