Chordie logo

While You're Waiting    Alkaline Trio



Artist: Alkaline Trio
Title: While You're Waiting



Intro:
---------------------------------|
---------------------------------|
-7-7-7-7-------------------------|
-7-7-7-7--7-7-7-7--5-5-5-5-5-5---|
-5-5-5-5--7-7-7-7--5-5\\4-4/5-5---|
----------5-5-5-5--3-3-3-3-3-3---|

---------------------------------|
---------------------------------|
-7-7-7-7-------------------------|
-7-7-7-7--7-7-7-7--5-5-5-5---7---|
-5-5-5-5--7-7-7-7--5-5\\4-4---7---|
----------5-5-5-5--3-3-3-3---5---|


Riff 1:
-------------------------------|
-------------------------------|
-7-7-7-------------------------|
-7-7-7---7-7-7---5-5-5-5-5-5---|
-5-5-5---7-7-7---5-5-5-5-5-5---|
---------5-5-5---2-2/3-3-3-3---|


Verse:
just hit this chord before verse, and let it ring throughout, w/ random feedback
------|
------|
-7----|
-7----|
-5----|
------|


Chorus:
Timing on chorus is wierd, first chorus he palm mutes, all the rest he just
jams on the chords, play w/ c.d.
------------------------------|
------------------------------|
------------------------------|
-9-----5-----2-----5-----7----|
-9-----5-----2-----5-----7----|
-7-----3-----0-----3-----5----|



Songflow:
Intro
Riff 1 (4x)
Verse chord
Riff 1 (2x)
Verse chord
Chorus
Riff 1 (4x)
Verse chord
Chorus
Riff 1 palm muted (4x)
Chorus
Riff 1 (4x)



Important: The song above is NOT stored on the Chordie server. The original song is hosted at www.xguitar.com. Chordie works as a search engine and provides on-the-fly formatting. Chordie does not index songs against artists/composers will. To remove this song please click here.

This song is displayed as text-only. Transposing and tuning is only available for chordpro-songs.

Login - add to songbook

Rating click stars to rate

Layout
Accuracy

SHARE PAGE  



You need to log in to post comments