Guitar Tabs, Chords and Lyrics


Fine Without You    Alkaline Trio



Title: Fine Without You
Artist: Alkaline Trio
Album: Alkaline Trio/One Man Army Split
Year: 2004

Tabbed By: Kevin Cross
Email: PSAF@wi.rr.com
AIM: KevinC442

This is a relatively simple song to play.

If you need any help, or find an error,
or want to leave me a comment, email me at
PSAF@wi.rr.com or message me on AIM.

ORDER: Intro>Verse>Intro>Verse>Chorus>Intro>Verse>Chorus X2>Ending

INTRO
|---------------------------------------------------------------|
|---------------------------------------------------------------|
|6-6-6-7-7-7-6-6-6-7-7-7-6-6-7-7-6-6-6-7-7-7-2-2-2-4-4-4-9-7-6-6|  X2
|7-7-7-7-7-7-7-7-7-7-7-7-7-7-7-7-0-0-0-0-0-0-0-0-0-0-0-0-0-0-0-0|
|0-0-0-0-0-0-0-0-0-0-0-0-0-0-0-0--------------------------------|
|---------------------------------------------------------------|

*****************************************************************

VERSE
 Well I'll sit here...           If you keep...
 Well my friends...		 Won't listen to myself...
 I'll sit here trying...	 But you keep on pretending...
|---------------------------------------------------------------|
|---------------------------------------------------------------|
|6-------------------------------7------------------------------|  X2
|7-------------------------------0------------------------------|
|0--------------------------------------------------------------|
|---------------------------------------------------------------|

 I've got nothing here...        Holes in walls and...
 You got on a plane...           You're never coming back...
 I'd kill for you and...         Give you the heart and....
|---------------------------------------------------------------|
|---------------------------------------------------------------|
|6-------------7-----------------6--------------7---------------|  X2
|7-------------0-----------------7--------------0---------------|
|0-------------------------------0------------------------------|
|---------------------------------------------------------------|

 My head is pounding...          Like a big black song.
 I'm trying to convince...    ...true, convincing myself
 A thousand miles...          ...walking to hold you.
|---------------------------------------------------------------|
|---------------------------------------------------------------|
|9-------------------------------7------------------------------|
|9-------------------------------7------------------------------|
|7-------------------------------5------------------------------|
|0--------------------------------------------------------------|
*****************************************************************

CHORUS
 I'll be just fine without you.
|---------------------------------------------------------------|
|---------------------------------------------------------------|
|6-6-6-7-7-7-6-6-6-7-7-7-6-6-7-7-6-6-6-7-7-7-2-2-2-4-4-4-9-7-6-6|  X2
|7-7-7-7-7-7-7-7-7-7-7-7-7-7-7-7-0-0-0-0-0-0-0-0-0-0-0-0-0-0-0-0|
|0-0-0-0-0-0-0-0-0-0-0-0-0-0-0-0--------------------------------|
|---------------------------------------------------------------|

 I'll be just fine without you,  I'll be here telling myself it's true
|---------------------------------------------------------------|
|---------------------------------------------------------------|
|9-9-9-9-9-9-9-9-9-9-9-9-9-9-9-9-7-7-7-7-7-7-7-7-7-7-7-7-7-7-7-7|
|9-9-9-9-9-9-9-9-9-9-9-9-9-9-9-9-7-7-7-7-7-7-7-7-7-7-7-7-7-7-7-7|
|7-7-7-7-7-7-7-7-7-7-7-7-7-7-7-7-5-5-5-5-5-5-5-5-5-5-5-5-5-5-5-5|
|0-0-0-0-0-0-0-0-0-0-0-0-0-0-0-0--------------------------------|
*****************************************************************

ENDING
 I'll be just fine without you, I'll be just fine without you
|---------------------------------------------------------------|
|---------------------------------------------------------------|
|9-9-9-9-9-9-9-9-9-9-9-9-9-9-9-9-7-7-7-7-7-7-7-7-7-7-7-7-7-7-7-7|
|9-9-9-9-9-9-9-9-9-9-9-9-9-9-9-9-7-7-7-7-7-7-7-7-7-7-7-7-7-7-7-7|
|7-7-7-7-7-7-7-7-7-7-7-7-7-7-7-7-5-5-5-5-5-5-5-5-5-5-5-5-5-5-5-5|
|0-0-0-0-0-0-0-0-0-0-0-0-0-0-0-0--------------------------------|

 I'll be just fine without you,  I'll be here telling myself it's true
|---------------------------------------------------------------|
|---------------------------------------------------------------|
|9-9-9-9-9-9-9-9-9-9-9-9-9-9-9-9-7-7-7-7-7-7-7-7-7-7-7-7-7-7-7-7|
|9-9-9-9-9-9-9-9-9-9-9-9-9-9-9-9-7-7-7-7-7-7-7-7-7-7-7-7-7-7-7-7|
|7-7-7-7-7-7-7-7-7-7-7-7-7-7-7-7-5-5-5-5-5-5-5-5-5-5-5-5-5-5-5-5|
|0-0-0-0-0-0-0-0-0-0-0-0-0-0-0-0--------------------------------|

|---------------------------------------------------------------|
|---------------------------------------------------------------|
|6-6-6-7-7-7-6-6-6-7-7-7-6-6-7-7--------------------------------|  X2
|7-7-7-7-7-7-7-7-7-7-7-7-7-7-7-7-7------------------------------|
|0-0-0-0-0-0-0-0-0-0-0-0-0-0-0-0-7------------------------------|


Important: The song above is NOT stored on the Chordie server. The original song is hosted at www.xguitar.com. Chordie works as a search engine and provides on-the-fly formatting. Chordie does not index songs against artists'/composers' will. To remove this song please click here.

This song is displayed as text-only. Transposing and tuning is only available for chordpro-songs.

Login - add to songbook

Rating click stars to rate

Layout
Accuracy

SHARE PAGE  




You need to log in to post comments