Guitar Tabs, Chords and Lyrics


Sadie    Alkaline Trio



This is a great song off of the Alkaline Trio split cd with One Man Army. Try out this tab it’s a guarantee this tab is 100% correct.

Intro - guitar 1
------------------------------------------------------------------------------------
------------------------------------------------------------------------------------
------------------------------------------------------------------------------------
--9--9--9-10-10-10--9--9--9-9-9-10-10-10-9-9--9-9-9-9-9-9-9-9-10-10-10--9-9-9-9-9---
-10-10-10-10-10-10-10-10--0-0-0--0--0--0-0-0--7-7-7-7-7-7-7-7--7--7--7--7-7-7-7-7---
------------------------------------------------------------------------------------

Intro- guitar 2                            sometimes you hear
------------------------------------------|---------------------------------
-------8-------8-------8-------8----------|---------------------------------
--11------11-----11------11---------------|---------------------------------
------------------------------------------|---7-7-7-7b-5-----------------
------------------------------------------|---------------7---------------
------------------------------------------|---------------------------------

Verse- half notes like in the intro are optional
----------------------------------------------------------------------------
----------------------------------------------------------------------------
----------------------------------------------------------------------------
--9--9--9--9--9--9--9--9--9-9-9-9-9-9-9-9--9-9-9-9-9-9-9-9-9-9-9-9-9-9-9-9--
-10-10-10-10-10-10-10-10--0-0-0-0-0-0-0-0--7-7-7-7-7-7-7-7-7-7-7-7-7-7-7-7--
----------------------------------------------------------------------------

Pre Chorus - palm mute about half then slowly loosen up
-----------------------------------------------------
-----------------------------------------------------
-----------------------------------------------------
-----------------------------------------------------
-10-10-10-10-10-10-10-10-10-10-10-10-10-10-10-10-----
--8--8--8--8--8--8--8--8--8--8--8--8--8--8--8--8-----

Chorus - listen for when to play the last chord longer
------------------------------------------------------------------------
------------------------------------------------------------------------
-----------------5-5-5-5-5-5-5-5-----------------7-7-7-7-7-7-7-7--------
-2-2-2-2-2-2-2-2-5-5-5-5-5-5-5-5-5-5-5-5-5-5-5-5-7-7-7-7-7-7-7-7--------
-2-2-2-2-2-2-2-2-3-3-3-3-3-3-3-3-5-5-5-5-5-5-5-5-5-5-5-5-5-5-5-5--------
-0-0-0-0-0-0-0-0-----------------3-3-3-3-3-3-3-3------------------------

Bridge-  (bend up and down with out striking the string again) listen for how many times to bend
----------------------------------|-----------------------------------------------------
----------------------------------|--------------------12b-b-b-b-b-------8---8---8---8--
-------12-------------------------|--12--12-------12------------------11--11--11--11----
--12-------12---9b-b-b-b-b-b-b-b--|----------12-----------------------------------------
----------------------------------|-----------------------------------------------------
----------------------------------|-----------------------------------------------------

Outro
----------------------------------------------------
----------------------------------------------------
---------------------------------5-5-5-5-5-5-5-5----
-5-5-5-5-5-5-5-5-2-2-2-2-2-2-2-2-5-5-5-5-5-5-5-5----
-5-5-5-5-5-5-5-5-2-2-2-2-2-2-2-2-3-3-3-3-3-3-3-3----
-3-3-3-3-3-3-3-3-0-0-0-0-0-0-0-0--------------------



Important: The song above is NOT stored on the Chordie server. The original song is hosted at www.xguitar.com. Chordie works as a search engine and provides on-the-fly formatting. Chordie does not index songs against artists'/composers' will. To remove this song please click here.

This song is displayed as text-only. Transposing and tuning is only available for chordpro-songs.

Login - add to songbook

Rating click stars to rate

Layout
Accuracy

SHARE PAGE  




You need to log in to post comments