Guitar Tabs, Chords and Lyrics


The Last Song    All American Rejects



The All-American Rejects
\\"The Last Song\\"
The All-American Rejects

I tabbed this out because none of the others are really right. What they have is good, but some stuff is
left out. So here?s my tab. I may add lyrics guides later, since I didn?t really tell how long to play most of
the chords.

Standard tuning (from high to low): eBGDAE

Legend:
~-Let ring
PM??-Palm mute
-Slide down
/-Slide up

Intro: You?ll have to figure out the timing on your own. Its the violins and cellos and what not arranged
on the guitar. Sounds pretty much like it if you play it clean.

-|-----------8-9-------------8-9--------------8-9-----|-
-|----9-6--------9-----9-6-------9-----9-6---------9-6|-
-|-6--------------------------------------------------|-
-|------------------8---------------6-----------------|-
-|----------------------------------------------------|-
-|----------------------------------------------------|-

Play that twice, then add this to the end of the second one:

-|9~|
-|--|
-|--|
-|--|
-|--|
-|--|

Verse One:I hope you can figure out how long to strum the chords? I?m too lazy to tab them all out but
you?re smart.

-|-------|-------|-------|------|
-|-------|-------|-------|------|
-|-6-666-|-3-333-|-------|------|
-|-6-666-|-3-333-|-6-666-|-4444-|
-|-4-444-|-1-111-|-6-666-|-4444-|
-|-------|-------|-4-444-|-2222-|
     P.M.    P.M.    P.M.

Pre-Chorus: (\\"You wanted the best, it wasn\\'t me\\")

Guitar one: Listen to the song to figure out exactly when to play this. I may add lyric guides later. Repeat
as needed.

-|--------------|
-|-------1-2----|
-|-----------1--|
-|--------------|
-|---8----------|
-|-6---9--------|

Guitar two: Again listen to song for exact strumming.

-|---|---|---|---|
-|---|---|---|---|  Play twice.
-|-3-|---|-6-|---|
-|-3-|-4-|-6-|-6-|
-|-1-|-4-|-4-|-6-|
-|---|-2-|---|-4-|

Chorus: Again, learn chord changes on your own. (Just play once, one guitar, two guitars playing
together, whatever.)

-|---|---|---|---|
-|---|---|---|---|
-|-6-|---|-3-|---|
-|-6-|-4-|-3-|-6-|
-|-4-|-4-|-1-|-6-|
-|---|-2-|---|-4-|

Verse two: Play just like the first. (Guitar two)

-|-------|-------|-------|
-|-------|-------|-------|
-|-6-666-|-3-333-|-------|
-|-6-666-|-3-333-|-6-666-|
-|-4-444-|-1-111-|-6-666-|
-|-------|-------|-4-444-|
     P.M.    P.M.    P.M.

Play that twice, then:

-|------|
-|------|
-|------|
-|-4444-|
-|-4444-|
-|-2222-|

Guitar one: Listen to song to know when to play and get timing right.

-|-999\\\\----999\\\\----999\\\\----999\\\\-----------------|
-|-999\\\\----999\\\\----999\\\\----999\\\\-----------------|
-|--------------------------------------4-----5-|
-|-----------------------------------6------6---|
-|----------------------------------------------|
-|---------------------------------4-----4------|

All of that is played twice throughout the verse.

(Repeat pre-chorus exactly like first.)

(Repeat chorus exactly like the first.)


Bridge:

Guitar two:

-|----|
-|----|
-|-4~-|
-|-4~-|
-|-2~-|
-|----|

Guitar one: Listen to song again for precise timing, especially on the last few notes.

-|-------8-9---------8-9---------8-9----9~--8~--6~--6~--9~|
-|---9-6-----9---9-6-----9---9-6-----9--------------------|
-|-6------------------------------------------------------|
-|-------------8-----------6------------------------------|
-|--------------------------------------------------------|
-|--------------------------------------------------------|

Guitar two: You play this clean when the first of those last notes start. I think this is right.

-|-1-|
-|-1-|
-|-2-|
-|-3-|
-|-3-|
-|-1-| Play for a while, then just keep playing this:

-|-2-|
-|-2-|
-|-3-|
-|-4-|
-|-4-|
-|-2-|

Then:

Guitar one: Listen for rhythm, this actually supposed to be the cellos and stuff but this still works pretty
well.

-|------------------------------------------------------|
-|------------------------------------------------------|
-|-6-6-6-6-6-6-6-6/8 (8 times)/11 (8 times)-10-11-13-13-|
-|------------------------------------------------------|
-|------------------------------------------------------|
-|------------------------------------------------------|

Play the last 13 a few more times.



Guitar two:



Basically the same thing, just with distortion. Try playing different octaves and stuff.

-|---|----|----|---------|
-|---|----|----|---------|
-|-6-|-8--|----|---------|
-|-6-|-8--|-4--|-3-4-6-6-|
-|-4-|-6--|-4--|-3-4-6-6-|
-|---|----|-2--|-1-2-4-4-|  Etc.

Then you play the chorus twice just like you normally would then end with this chord:

-|----|
-|----|
-|-6~-|
-|-6~-|
-|-4~-|
-|----|

Questions, comments, etc., e-mail to me at sirwillalot@hotmail.com. And I just thought I would add this,
if you play all the violin, cello, stuff with a phaser, it sounds pretty kool. If I left anything out, please tell


Important: The song above is NOT stored on the Chordie server. The original song is hosted at www.xguitar.com. Chordie works as a search engine and provides on-the-fly formatting. Chordie does not index songs against artists'/composers' will. To remove this song please click here.

This song is displayed as text-only. Transposing and tuning is only available for chordpro-songs.

Login - add to songbook

Rating click stars to rate

Layout
Accuracy

SHARE PAGE  




You need to log in to post comments