Chordie logo

Friday Night    Allister



"Friday Night" - Allister
Tabbed by Sean DeLonge

intro (3x)
e|------------------------------------------|
b|------------------------------------------|
g|---7--4--------7--4--------7--4-----------|
d|---7--4--5-----7--4--5-----7--4--5-----7--|
a|---5--2--5-----5--2--5-----5--2--5-----7--|
e|---------3-----------3-----------3-----5--|

(cont'd)
e|-------------------------------------------|
b|-------------------------------------------|
g|---7---------7---------7-----------7-------|
d|---7--7--5---7--7--5---7--7--5-----7--7--5-|
a|---5--7--5---5--7--5---5--7--5-----5--7--5-|
e|------5--3------5--3------5--3--------5--3-|

chorus
rythym
e|-------------------------------------------|
b|-------------------------------------------|
g|--7-------------------7--------------------|
d|--7----7----5----7----7----7----5----5-----|
a|--5----7----5----7----5----7----5----7-----|
e|-------5----3----5---------5----3----7-----|

lead
e|-------------------------------------------|
b|-------------------------------------------|
g|-7----9---12---14----7-----9----12---14----|
d|-x----x---xx---xx----x-----x----xx---xx----|
a|-5----7---10---12----5-----7----10---12----|
e|-------------------------------------------|

intro (3x)
e|------------------------------------------|
b|------------------------------------------|
g|---7--4--------7--4--------7--4-----------|
d|---7--4--5-----7--4--5-----7--4--5-----7--|
a|---5--2--5-----5--2--5-----5--2--5-----7--|
e|---------3-----------3-----------3-----5--|

(1x)
e|-------------------------------------------|
b|-------------------------------------------|
g|---7---------7---------7-----------7-------|
d|---7--7--5---7--7--5---7--7--5-----7--7--5-|
a|---5--7--5---5--7--5---5--7--5-----5--7--5-|
e|------5--3------5--3------5--3--------5--3-|

rythym
e|-------------------------------------------|
b|-------------------------------------------|
g|--7-------------------7--------------------|
d|--7----7----5----7----7----7----5----5-----|
a|--5----7----5----7----5----7----5----7-----|
e|-------5----3----5---------5----3----7-----|

lead
e|-------------------------------------------|
b|-------------------------------------------|
g|-7----9---12---14----7-----9----12---14----|
d|-x----x---xx---xx----x-----x----xx---xx----|
a|-5----7---10---12----5-----7----10---12----|
e|-------------------------------------------|

intro(1x)
e|------------------------------------------|
b|------------------------------------------|
g|---7--4--------7--4--------7--4-----------|
d|---7--4--5-----7--4--5-----7--4--5-----7--|
a|---5--2--5-----5--2--5-----5--2--5-----7--|
e|---------3-----------3-----------3-----5--|

rythym
e|-------------------------------------------|

b|-------------------------------------------|
g|--7-------------------7--------------------|
d|--7----7----5----7----7----7----5----5~~~--|
a|--5----7----5----7----5----7----5----7~~~--|
e|-------5----3----5---------5----3----7~~~--|

lead
e|-------------------------------------------|
b|-------------------------------------------|
g|-7----9---12---14----7-----9----12---14~~~-|
d|-x----x---xx---xx----x-----x----xx---xx~~~-|
a|-5----7---10---12----5-----7----10---12~~~-|


Important: The song above is NOT stored on the Chordie server. The original song is hosted at www.xguitar.com. Chordie works as a search engine and provides on-the-fly formatting. Chordie does not index songs against artists/composers will. To remove this song please click here.

This song is displayed as text-only. Transposing and tuning is only available for chordpro-songs.

Login - add to songbook

Rating click stars to rate

Layout
Accuracy

SHARE PAGE  

You need to log in to post comments