Guitar Tabs, Chords and Lyrics


Racecars    Allister



Artist: Allister
Title: Racecars
Submitted by Sean Farley (ProGuitarPunk@hotmail.com)

.=Palm mute
h=hammer on
p=pull off

Intro/Verse (Guitar1)
|----------------------------------|
|----------------------------------|
|-----------------7-7-7-779-9-9-99-|
|-7-7-7-779-9-9-997-7-7-779-9-9-99-|X10
|-7-7-7-779-9-9-995-5-5-557-7-7-77-|
|-5-5-5-557-7-7-77-----------------|
  . .   ... .   ... .   ... .   ..

                    \\___on last time no P.M./
Verse (Guitar2)
|----------------------------------|
|----------------------------------|
|-----------------7-7-7-779-9-9-99-|
|-7-7-7-779-9-9-997-7-7-779-9-9-99-|X4
|-7-7-7-779-9-9-995-5-5-557-7-7-77-|
|-5-5-5-557-7-7-77-----------------|
  . .   ... .   ... .   ... .   ..

                    \\___on last time no P.M./
PreChorus (Both Guitars)
|-----------------------------------------------------------------|
|-----------------------------------------------------------------|
|-7-7-7-7-7-7-7-7-9-9-9-9-9-9-9-9---------------------------------|
|-7-7-7-7-7-7-7-7-9-9-9-9-9-9-9-9-7-7-7-7-7-7-7-7-4-4-4-4-4-4-4-4-|x2
|-5-5-5-5-5-5-5-5-7-7-7-7-7-7-7-7-7-7-7-7-7-7-7-7-4-4-4-4-4-4-4-4-|
|---------------------------------5-5-5-5-5-5-5-5-2-2-2-2-2-2-2-2-|

|-----------------|-------------|
|-----------------|-------------|
|-7-7-7-7-7-7-7-7-|-9-----------|
|-7-7-7-7-7-7-7-7-|-9--Let Ring-|
|-5-5-5-5-5-5-5-5-|-7-----------|
|-----------------|-------------|
      . . . . . .

Chorus (Both Guitars)
|---------------------------------|
|---------------------------------|
|-----------------9-9-9-9-9-9-9-9-|
|-7-7-7-7-9-9-9-9-9-9-9-9-9-9-9-9-|X4
|-7-7-7-7-9-9-9-9-7-7-7-7-7-7-7-7-|
|-5-5-5-5-7-7-7-7-----------------|

|-----------------|-----------------|-(Guitar 2 only)----|
|-----------------|-6-6-6-6-6-6-6-6-|--------------------|
|-7-7-7-7-7-7-7-7-|-7-7-7-7-7-7-7-7-|--------------------|
|-7-7-7-7-7-7-7-7-|-7-7-7-7-7-7-7-7-|-5-5----------------|
|-5-5-5-5-5-5-5-5-|-5-5-5-5-5-5-5-5-|-5-5----------------|
|-----------------|-----------------|-7-7----------------|
      . . . . . .

Intro/Verse (Guitar1)
|----------------------------------|
|----------------------------------|
|-----------------7-7-7-779-9-9-99-|
|-7-7-7-779-9-9-997-7-7-779-9-9-99-|X10
|-7-7-7-779-9-9-995-5-5-557-7-7-77-|
|-5-5-5-557-7-7-77-----------------|
  . .   ... .   ... .   ... .   ..

    \\___on last time no P.M._____/

Verse (Guitar 2)
|------|
|---10-|
|-9----|x13
|------|
|------|
|------|

PreChorus (Both Guitars)
|-----------------------------------------------------------------|
|-----------------------------------------------------------------|
|-7-7-7-7-7-7-7-7-9-9-9-9-9-9-9-9---------------------------------|
|-7-7-7-7-7-7-7-7-9-9-9-9-9-9-9-9-7-7-7-7-7-7-7-7-4-4-4-4-4-4-4-4-|x2
|-5-5-5-5-5-5-5-5-7-7-7-7-7-7-7-7-7-7-7-7-7-7-7-7-4-4-4-4-4-4-4-4-|
|---------------------------------5-5-5-5-5-5-5-5-2-2-2-2-2-2-2-2-|

|-----------------|-------------|
|-----------------|-------------|
|-7-7-7-7-7-7-7-7-|-9-----------|
|-7-7-7-7-7-7-7-7-|-9--Let Ring-|
|-5-5-5-5-5-5-5-5-|-7-----------|
|-----------------|-------------|
      . . . . . .

Chorus (Both Guitars)
|---------------------------------|
|---------------------------------|
|-----------------9-9-9-9-9-9-9-9-|
|-7-7-7-7-9-9-9-9-9-9-9-9-9-9-9-9-|X4
|-7-7-7-7-9-9-9-9-7-7-7-7-7-7-7-7-|
|-5-5-5-5-7-7-7-7-----------------|

|-----------------|-----------------|
|-----------------|-6-6-6-6-6-6-6-6-|
|-7-7-7-7-7-7-7-7-|-7-7-7-7-7-7-7-7-|
|-7-7-7-7-7-7-7-7-|-7-7-7-7-7-7-7-7-|
|-5-5-5-5-5-5-5-5-|-5-5-5-5-5-5-5-5-|
|-----------------|-----------------|
      . . . . . .

Interlude (Guitar1)
|----------------------------|---------------------------------|
|----------------------------|---------------------------------|
|----------------------------|-----------------7-7-7-7-7-7-7-7-|
|-------7-7---9-9---9-9-(x3)-|-7-7-7-7-7-7-7-7-7-7-7-7-7-7-7-7-|
|-7-7---5-5---7-7---7-7------|-7-7-7-7-7-7-7-7-5-5-5-5-5-5-5-5-|
|-5-5------------------------|-5-5-5-5-5-5-5-5-----------------|
                               . . . . . . . . . . . . . . . .

Interlude (Guitar2)
|------------------------------------------------|------------|
|-10-10-10-10-10-10-10-10-10-10-12--12h14p12-(X3)|-10-9-7-9-5-|
|------------------------------------------------|------------|
|------------------------------------------------|------------|
|------------------------------------------------|------------|
|------------------------------------------------|------------|

Chorus (Both Guitars)
|---------------------------------|
|---------------------------------|
|-----------------9-9-9-9-9-9-9-9-|
|-7-7-7-7-9-9-9-9-9-9-9-9-9-9-9-9-|X8
|-7-7-7-7-9-9-9-9-7-7-7-7-7-7-7-7-|
|-5-5-5-5-7-7-7-7-----------------|

|-----------------|-----------------|-----|
|-----------------|-6-6-6-6-6-6-6-6-|-----|
|-7-7-7-7-7-7-7-7-|-7-7-7-7-7-7-7-7-|-----|
|-7-7-7-7-7-7-7-7-|-7-7-7-7-7-7-7-7-|-----|
|-5-5-5-5-5-5-5-5-|-5-5-5-5-5-5-5-5-|-7-7-|
|-----------------|-----------------|-5-5-|


Important: The song above is NOT stored on the Chordie server. The original song is hosted at www.xguitar.com. Chordie works as a search engine and provides on-the-fly formatting. Chordie does not index songs against artists'/composers' will. To remove this song please click here.

This song is displayed as text-only. Transposing and tuning is only available for chordpro-songs.

Login - add to songbook

Rating click stars to rate

Layout
Accuracy

SHARE PAGE  




You need to log in to post comments