Guitar Tabs, Chords and Lyrics


Radio Player    Allister



Artist:     Allister
Title:      Radio Player
Album :     Last Stop Suburbia

Tabbed by allisterpunk (dastud5025@hotmail.com)

This is my 3rd Allister song I’ve tabbed so far so I think I know what I’m doing
Allister is my favorite band and is my favorite artist to tab songs for.

Correct and Rate me on this tab; I’m 99% sure on this tab

This is the rhythm only

Intro
e|---------------------------------------------|
b|---4h5p5-------------------------------------|
g|---------------------------------------------|
d|---------------------------------------------|   (repeat as many times as needed)
a|---------------------------------------------|
e|---------------------------------------------|

Intro cont.
e|------------------------------------------------|
b|------------------------------------------------|
g|---4444444444444444-----------------------------|
d|---4444444444444444---4444444444444444----------|
a|---2222222222222222---4444444444444444----------|
e|----------------------2222222222222222----------|

e|-------------------------------------------------|
b|-------------------------------------------------|
g|-------------------------------------------------|
d|---2222222222222222---4444444444444444-----------|
a|---2222222222222222---4444444444444444-----------|
e|---0000000000000000---2222222222222222-----------|

Then play this
e|------------------------------------------------------------|
b|------------------------------------------------------------|
g|---999---888---666---44444444-------------------------------|
d|---999---888---666---44444444-------------------------------|   (x4)
a|---777---666---444---22222222-------------------------------|
e|------------------------------------------------------------|

Verse
e|--------------------------------------------------------------|
b|--------------------------------------------------------------|
g|--------4------4----------------------------------------------|
d|--------4------4---------2------4-----------------------------|   (x4)
a|-----xx-2---xx-2---------2------4-----------------------------|
e|----------------------xx-0---xx-2-----------------------------|

Pre-Chorus
e|--------------------------------------------------------------|
b|--------------------------------------------------------------|
g|--------------44444444----------------------------------------|
d|---22222222---44444444----------------------------------------| (x3)
a|---22222222---22222222----------------------------------------|
e|---00000000---------------------------------------------------|

Then on 4th time play
e|--------------------------------------------------------------|
b|--------------------------------------------------------------|
g|--------------------------------------------------------------|
d|---4444444444444444-------------------------------------------|
a|---4444444444444444-------------------------------------------|
e|---2222222222222222-------------------------------------------|

Chorus
e|--------------------------------------------------------------|
b|--------------------------------------------------------------|
g|---4444-------------------------------------------------------|
d|---4444---6666---2222---4444----------------------------------|   (x4)
a|---2222---6666---2222---4444----------------------------------|
e|----------4444---0000---2222----------------------------------|

Intro cont.
e|---------------------------------------------------------------|
b|---------------------------------------------------------------|
g|---4444444444444444--------------------------------------------|
d|---4444444444444444---4444444444444444-------------------------|
a|---2222222222222222---4444444444444444-------------------------|
e|----------------------2222222222222222-------------------------|

e|---------------------------------------------------------------|
b|---------------------------------------------------------------|
g|---------------------------------------------------------------|
d|---2222222222222222---4444444444444444-------------------------|
a|---2222222222222222---4444444444444444-------------------------|
e|---0000000000000000---2222222222222222-------------------------|

Verse
e|----------------------------------------------------------------|
b|----------------------------------------------------------------|
g|-------4------4-------------------------------------------------|
d|-------4------4--------2-------4--------------------------------|  (x4)
a|----xx-2---xx-2--------2-------4--------------------------------|
e|--------------------xx-0----xx-2--------------------------------|

Pre-Chorus
e|-----------------------------------------------------------------|
b|-----------------------------------------------------------------|
g|--------------44444444-------------------------------------------|
d|---22222222---44444444-------------------------------------------| (x3)
a|---22222222---22222222-------------------------------------------|
e|---00000000------------------------------------------------------|

Then on 4th time play
e|------------------------------------------------------------------|
b|------------------------------------------------------------------|
g|------------------------------------------------------------------|
d|---4444444444444444-----------------------------------------------|
a|---4444444444444444-----------------------------------------------|
e|---2222222222222222-----------------------------------------------|

Chorus
e|------------------------------------------------------------------|
b|------------------------------------------------------------------|
g|---4444-----------------------------------------------------------|
d|---4444---6666---2222---4444--------------------------------------|   (x8)
a|---2222---6666---2222---4444--------------------------------------|
e|----------4444---0000---2222--------------------------------------|

Bridge
e|------------------------------------------------------------------|
b|------------------------------------------------------------------|
g|------------------------------------------------------------------|
d|---66666666---44444444---222222222222222--------------------------|
a|---66666666---44444444---222222222222222--------------------------|
e|---44444444---22222222---000000000000000--------------------------|

Then the lead goes off into some picking…
Then come back with the chorus again

Chorus
e|------------------------------------------------------------------|
b|------------------------------------------------------------------|
g|---4444-----------------------------------------------------------|
d|---4444---6666---2222---4444--------------------------------------|   (x8)
a|---2222---6666---2222---4444--------------------------------------|
e|----------4444---0000---2222--------------------------------------|

End on
e|------------------------------------------------------------------|
b|------------------------------------------------------------------|
g|---44------------------44-----------------------------------------|
d|---44---66---22---44---44-----------------------------------------|
a|---22---66---22---44---22-----------------------------------------|
e|--------44---00---22----------------------------------------------|

The End


Important: The song above is NOT stored on the Chordie server. The original song is hosted at www.xguitar.com. Chordie works as a search engine and provides on-the-fly formatting. Chordie does not index songs against artists'/composers' will. To remove this song please click here.

This song is displayed as text-only. Transposing and tuning is only available for chordpro-songs.

Login - add to songbook

Rating click stars to rate

Layout
Accuracy

SHARE PAGE  




You need to log in to post comments