Chordie logo

Somewhere on Fullerton    Allister



SONG: Somewhere On Fullerton
BAND: Allister
ALBUM: Last Stop Surburbia
TABBED BY: Matt Lozano

Hey, It's Matt. I tabbed this one for my bun. ; )
Now this song is pretty easy. Just play it a couple times and you
should have it.

Guitar 1
e|---------------------------------------------------------------------------|
B|---------------------------------------------------------------------------|
G|-88888888----------------------------88888888------------------------------|
D|-88888888-88888888-66666666-88888888-88888888-88888888-66666666-8----------|
A|-66666666-88888888-66666666-88888888-66666666-88888888-66666666-8----------|
E|----------66666666-44444444-66666666----------66666666-44444444-6----------|
pm---------------------------------------------------------------------------

Guitar 2
e|---------------------------------------------------------------------------|
B|---------------------------------------------------------------------------|
G|-88----------------------------------88------------------------------------|
D|-88----------------------------------88------------------------------------|
A|-66----------------------------------66------------------------------------|
E|---------------------------------------------------------------------------|

Guitar 1
e|---------------------------------------------------------------------------|
B|---------------------------------------------------------------------------|
G|-88888888-1010101010101010-1212121212121212-1010101010101010-8-----10------|
D|-xxxxxxxx-xxxxxxxxxxxxxxxx-xxxxxxxxxxxxxxxx-xxxxxxxxxxxxxxxx-x-X16-x-X16---|
A|-66666666-8888888888888888-1010101010101010-8888888888888888-6-----8-------|
E|---------------------------------------------------------------------------|

Guitar 2
e|---------------------------------------------------------------------------|
B|---------------------------------------------------------------------------|
G|-------------------88888888------------------------------------------------|
D|-66666666-88888888-88888888-10101010-66666666666666-88888888888888---------|
A|-66666666-88888888-66666666-10101010-66666666666666-88888888888888---------|
E|-44444444-66666666----------88888888-44444444444444-66666666666666---------|

Guitars 1+2
e|---------------------------------------------------------------------------|
B|---------------------------------------------------------------------------|
G|-888888888888888888--------------------------------------------------------|
D|-888888888888888888-8888888888888888-1010101010101010-6666666666666666-----|
A|-666666666666666666-8888888888888888-1010101010101010-6666666666666666-----|
E|--------------------6666666666666666-8888888888888888-4444444444444444-----|

e|---------------------------------------------------------------------------|
B|---------------------------------------------------------------------------|
G|-888888888888888888--------------------------------------------------------|
D|-888888888888888888-8888888888888888-1010101010101010-6666666666666666-----|
A|-666666666666666666-8888888888888888-1010101010101010-6666666666666666-----|
E|--------------------6666666666666666-8888888888888888-4444444444444444-----|

Guitar 1
e|---------------------------------------------------------------------------|
B|---------------------------------------------------------------------------|
G|-88888888----------------------------88888888------------------------------|
D|-88888888-88888888-66666666-88888888-88888888-88888888-66666666-8----------|
A|-66666666-88888888-66666666-88888888-66666666-88888888-66666666-8----------|
E|----------66666666-44444444-66666666----------66666666-44444444-6----------|
pm-----------------------------------------------------------------

Guitar 2 (Repeat until guitar 1 finishes)
e|---------------------------------------------------------------------------|
B|---------------------------------------------------------------------------|
G|----7/8--------------------------------------------------------------------|
D|----x/x--------------------------------------------------------------------|
A|----5/6--------------------------------------------------------------------|
E|---------------------------------------------------------------------------|

Guitar 1
e|---------------------------------------------------------------------------|
B|---------------------------------------------------------------------------|
G|-88888888-1010101010101010-1212121212121212-1010101010101010-8-----10------|
D|-xxxxxxxx-xxxxxxxxxxxxxxxx-xxxxxxxxxxxxxxxx-xxxxxxxxxxxxxxxx-x-X16-x-X16---|
A|-66666666-8888888888888888-1010101010101010-8888888888888888-6-----8-------|
E|---------------------------------------------------------------------------|

guitar.2
e|---------------------------------------------------------------------------|
B|---------------------------------------------------------------------------|
G|-------------------88888888------------------------------------------------|
D|-66666666-88888888-88888888-10101010-66666666666666-88888888888888---------|
A|-66666666-88888888-66666666-10101010-66666666666666-88888888888888---------|
E|-44444444-66666666----------88888888-44444444444444-66666666666666---------|

Guitars 1+2
e|---------------------------------------------------------------------------|
B|---------------------------------------------------------------------------|
G|-888888888888888888--------------------------------------------------------|
D|-888888888888888888-8888888888888888-1010101010101010-6666666666666666-----|
A|-666666666666666666-8888888888888888-1010101010101010-6666666666666666-----|
E|--------------------6666666666666666-8888888888888888-4444444444444444-----|

e|---------------------------------------------------------------------------|
B|---------------------------------------------------------------------------|
G|-888888888888888888--------------------------------------------------------|
D|-888888888888888888-8888888888888888-1010101010101010-6666666666666666-----|
A|-666666666666666666-8888888888888888-1010101010101010-6666666666666666-----|
E|--------------------6666666666666666-8888888888888888-4444444444444444-----|

guitar. 1
e|---------------------------------------------------------------------------|
B|---------------------------------------------------------------------------|
G|-88------------------------------------------------------------------------|
D|-88------88------66------1010-8888-----------------------------------------|
A|-66------88------66------1010-8888-----------------------------------------|
E|---------66------44------8888-6666-----------------------------------------|

guitar. 2
e|---------------------------------------------------------------------------|
B|---------------------------------------------------------------------------|
G|----8888----8888----8888-12121212-1010-------------------------------------|
D|----xxxx----xxxx----xxxx-xxxxxxxx-xxxx-------------------------------------|
A|----6666----6666----6666-10101010-8888-------------------------------------|
E|---------------------------------------------------------------------------|
Guitar 1

e|---------------------------------------------------------------------------|
B|-11----11----------11----11----11-13-11----11------------------------------|
G|----------13-12-------------13----------------13-12-------10h12-10----10---|
D|----13----------13----13----------------13----------13-13----------13----13|
A|---------------------------------------------------------------------------|
E|---------------------------------------------------------------------------|


Guitar 2 (backgrounds)
e|---------------------------------------------------------------------------|
B|---------------------------------------------------------------------------|
G|-88888888----------------------------88888888------------------------------|
D|-88888888-88888888-66666666-10108888-88888888-88888888-66666666-10108888---|
A|-66666666-88888888-66666666-10108888-66666666-88888888-66666666-10108888---|
E|----------66666666-44444444-88886666----------66666666-44444444-88886666---|

Guitar 1
e|---------------------------------------------------------------------------|
B|---------------------------------------------------------------------------|
G|-88888888-1010101010101010-1212121212121212-1010101010101010-8-----10------|
D|-xxxxxxxx-xxxxxxxxxxxxxxxx-xxxxxxxxxxxxxxxx-xxxxxxxxxxxxxxxx-x-X16-x-X16---|
A|-66666666-8888888888888888-1010101010101010-8888888888888888-6-----8-------|
E|---------------------------------------------------------------------------|

guitar.2
e|---------------------------------------------------------------------------|
B|---------------------------------------------------------------------------|
G|-------------------88888888------------------------------------------------|
D|-66666666-88888888-88888888-10101010-66666666666666-88888888888888---------|
A|-66666666-88888888-66666666-10101010-66666666666666-88888888888888---------|
E|-44444444-66666666----------88888888-44444444444444-66666666666666---------|

Guitars 1+2
e|---------------------------------------------------------------------------|
B|---------------------------------------------------------------------------|
G|-888888888888888888--------------------------------------------------------|
D|-888888888888888888-8888888888888888-1010101010101010-6666666666666666-----|
A|-666666666666666666-8888888888888888-1010101010101010-6666666666666666-----|
E|--------------------6666666666666666-8888888888888888-4444444444444444-----|

e|---------------------------------------------------------------------------|
B|---------------------------------------------------------------------------|
G|-888888888888888888--------------------------------------------------------|
D|-888888888888888888-8888888888888888-1010101010101010-6666666666666666-----|
A|-666666666666666666-8888888888888888-1010101010101010-6666666666666666-----|
E|--------------------6666666666666666-8888888888888888-4444444444444444-----|

Guitars 1+2
e|---------------------------------------------------------------------------|
B|---------------------------------------------------------------------------|
G|-888888888888888888--------------------------------------------------------|
D|-888888888888888888-8888888888888888-1010101010101010-6666666666666666-----|
A|-666666666666666666-8888888888888888-1010101010101010-6666666666666666-----|
E|--------------------6666666666666666-8888888888888888-4444444444444444-----|

e|---------------------------------------------------------------------------|
B|---------------------------------------------------------------------------|
G|-888888888888888888--------------------------------------------------------|
D|-888888888888888888-8888888888888888-1010101010101010-6666666666666666-----|
A|-666666666666666666-8888888888888888-1010101010101010-6666666666666666-----|
E|--------------------6666666666666666-8888888888888888-4444444444444444-----|


e|------------------------------------------------------------------------|
B|------------------------------------------------------------------------|
G|--------8-----------------------------8---------------------------------|
D|--------8-----------------------------x---------------------------------|
A|--------6-----------------------------6---------------------------------|
E|------------------------------------------------------------------------|



Important: The song above is NOT stored on the Chordie server. The original song is hosted at www.xguitar.com. Chordie works as a search engine and provides on-the-fly formatting. Chordie does not index songs against artists/composers will. To remove this song please click here.

This song is displayed as text-only. Transposing and tuning is only available for chordpro-songs.

Login - add to songbook

Rating click stars to rate

Layout
Accuracy

SHARE PAGE  

You need to log in to post comments