"yes"; ?> Blue Sky by Allman Brothers Band - guitar chords, guitar tabs and lyrics - chordie
E---------------------------------|-x-----------7-9---12-9-----------------

B---------------------------------|-x-------5/9------------9-------9-------
G---------------------------------|-x---4-6------------------9-------9h----
D---------------------------------|-2/6------------------------------------
A---------------------------------|-2--------------------------------------
E---------------------------------|-0--------------------------------------
E--------------------x-----------7-9---12-9--------------------------------
B--------------------x-------5/9------------9-------9----------------------
G---11p9-9-----------x---4-6------------------9-------9h11p9-9-------------
D--------------------2/6---------------------------------------------------
A--------------------2-----------------------------------------------------
E--------------------0-----------------------------------------------------
E--0----------------2---------------0---------------------0----------------
B--0----------------3---------------2---------------------0----------------
G--1----------------2---------------2---------------------1----------------
D--2----------------0---------------2---------------------2----------------
A--2----------------x---------------0---------------------2----------------
E--0----------------x---------------x---------------------0----------------

 EBAEB
 Walk along the river, sweet lullaby, it just keeps on flowing,
 AEA
 It don't worry 'bout where it's going, no, no      
 EBAE
 Don't fly, mister bluebird, I'm just walking down the road,
 BAEA
Early morning sunshine tell me all I need to know      

Chorus
 BAEA
     You're my blue sky, you're my sunny day.
 BAEA
     Lord, you know it makes me high when you turn your love my way,
 F#m7E
     Turn your love my way, yeah 

Solo: r r
E--------------------------------------------------------------------------
B--------------------------------------------------------------------------
G-------------------------------------------------11^-9---11^-(13)-11p9----
D--------------------------------------------------------------------------
A--------------------------------------------------------------------------
E--------------------------------------------------------------------------


r r r r
E--------------------------------------------------------------------------
B-------------------------------10p9---------------------------------------
G---11p9----9-11---11^-9---9h11------11p9---11^--^--^-9-----9h11p9----9----
D--------11--------------------------------------------------------11------
A--------------------------------------------------------------------------
E--------------------------------------------------------------------------
E--------------------------------------------------------------------------
B------------------------------------------12-14---12-14/17\14-------------
G-------------------------9-11-9-----11/13---------------------13-9--------
D---11-7-----7-----7-9/11--------------------------------------------------
A--------------------------------------------------------------------------
E--------------------------------------------------------------------------


r hold...
E--------------------------------------------------------------------------
B--------------------------------------------------9-10p9------------------
G---9-11^-9-----9-9---------------9-9-9---9-9---11--------11p9---11^-------
D-------------------11-9-----9h11------------------------------------------
A--------------------------------------------------------------------------
E--------------------------------------------------------------------------


r
E--------------------------------------------------------------------------
B--------------------------------------------------------------------------
G---------------(13)-----(13)-11p9----9-9-----11-9---11^-11^-11p9----9-9---
D----------------------------------11-----------------------------11-------
A--------------------------------------------------------------------------
E--------------------------------------------------------------------------


r r r
E------------------------------------------12p9----------------------------
B--------------10p9-----------------------------12p9-10-----9-10-----9-----
G---------9h11------11p9-----11^--^--^-9-----------------------------------
D--------------------------------------------------------------------------
A--------------------------------------------------------------------------
E--------------------------------------------------------------------------
E--------------------------------------------------------------------------
B---10-9--------10-9-10-9------10-9----------------------------------------
G--------11-9-------------11-9------11-9-----11-9---11^-11^~~~-9---11^-----
D--------------------------------------------------------------------------
A--------------------------------------------------------------------------
E--------------------------------------------------------------------------
E--------------------------------------------------------------------------
B-------------------9-----------------10p9---------------------------------
G---11---9----9-------11p9----9-----9------11p9-----9h11p9--------16-------
D----------11--------------11---------------------------------/18----------
A--------------------------------------------------------------------------
E--------------------------------------------------------------------------
E--------------------------------------------------------------------------
B---------19^-(21)---17----------------------------------------------------
G-------------------------16h18-16---16-16h18-16-----16h18p16----9---------
D-------------------------------------------------------------18-----------
A--------------------------------------------------------------------------
E--------------------------------------------------------------------------
E--------------------------------------------------------------------------
B----------------------------10-9---9-10-9-----9-10-12-10-9-10-----9-------
G---9h11p9----9-9-----9h11p9-----------------------------------------11----
D----------11--------------------------------------------------------------
A--------------------------------------------------------------------------
E--------------------------------------------------------------------------
E--------------------------------------------------------------------------
B---9----------------------------------------------------------------------
G-------11-9-11-----9-9h11p9----------------9-9h11p9----9-9-----9-11/13----
D----------------------------7---7---7-9/11----------11--------------------
A--------------------------------------------------------------------------
E--------------------------------------------------------------------------
E------------------------------------16-17p16-17p16---------------17p16----
B---12-14-12---12h14-12-12---12-12------------------17-17------------------
G--------------------------------------------------------------------------
D--------------------------------------------------------------------------
A--------------------------------------------------------------------------
E--------------------------------------------------------------------------
E------16h19p16-----16h17p16----16h19p16---------16h17p16----16h19p16------
B---17-----------------------17---------------------------17---------------
G--------------------------------------------------------------------------
D--------------------------------------------------------------------------
A--------------------------------------------------------------------------
E--------------------------------------------------------------------------
E---17-17-17p16------------------------------------------------------------
B-----------------17-17-17\16-----16-16-16\12---------------------12-12----
G--------------------------------------------------------------------------
D--------------------------------------------------------------------------
A--------------------------------------------------------------------------
E--------------------------------------------------------------------------
E----------------------------------------------------------------12p9------
B---12\10---10-10-10p9------10p9---------------10p9-------------------12---
G----------------------11p9------11-9---9-11p9------11p9---9-9-------------
D--------------------------------------------------------------------------
A--------------------------------------------------------------------------
E--------------------------------------------------------------------------
E--------------------------------------------------------------------------
B---p9---9-------------9h10-12---12^-12-12--^------------------------------
G----------11-9---9h11--------------------------11^-11^-11-9----9-----11---
D------------------------------------------------------------11------------
A--------------------------------------------------------------------------
E--------------------------------------------------------------------------
E---------------------12---------------------------------------------------
B-------12---12-12h14----14p12---------------------------------------------
G---/13------------------------13\11-9----9---11^-9-----9-9----------11----
D--------------------------------------11-------------------11-9-----------
A--------------------------------------------------------------------------
E--------------------------------------------------------------------------
E---------------------12---------------------------------------------------
B-------12---12-12h14----14p12---------------------10-9--------------------
G---/13------------------------13\11-9----9---11--------9---9-9h11---------
D--------------------------------------11--------------------------11-9----
A--------------------------------------------------------------------------
E--------------------------------------------------------------------------
E----------------------------17p16-----------------------------------------
B------------17---17---17h19-------19p17---------16h17----16h17------------
G--------/16-----------------------------18p16---------18------------------
D---------------------------------------------------------------19---------
A--------------------------------------------------------------------------
E--------------------------------------------------------------------------
E----------------------------------------------17p16-----------------------
B------------17-18p16----------17---17---17h19-------19p17---------16h17---
G---16-16h18---------------/16-----------------------------18p16-----------
D--------------------------------------------------------------------------
A--------------------------------------------------------------------------
E--------------------------------------------------------------------------
E----------------------------12-----12--------12---------------------------
B------16h17-----------12-14---------------14----14p12---------------------
G---18-------------/13---------------------------------13\11-9----9-11-----
D------------19------------------------------------------------11----------
A--------------------------------------------------------------------------
E--------------------------------------------------------------------------
E--------------------------------------------12-14-16p14-16p14----12-------
B---9---9h10p9----9----------------12-----14-------------------14----------
G--------------11---11p9-----11/13-----------------------------------------
D--------------------------------------------------------------------------
A--------------------------------------------------------------------------
E--------------------------------------------------------------------------
E---16p14----12------------------------------------------------------------
B---------14--------14---12h14p12-12---12h14-12-----12h14-12---------------
G----------------------------------------------------------------13\11-----
D--------------------------------------------------------------------------
A--------------------------------------------------------------------------
E--------------------------------------------------------------------------
E--------------------------------------------------------------------------
B-------------------------------------/12---12h14-12---12h14-12------------
G---9-----9h11---9---9h11---9h11p9--------------------------------13\11----
D--------------------------------------------------------------------------
A--------------------------------------------------------------------------
E--------------------------------------------------------------------------
E--------------------------------------------------------------------------
B---------------------------------------/12---12h14---12h14p12----14-12----
G-----9-----9h11---9---9h11---9h11p9---------------------------13----------
D--------------------------------------------------------------------------
A--------------------------------------------------------------------------
E--------------------------------------------------------------------------
E-----------------------12h14p12----12-14---16-----16-----16-16p14-12-14---
B-------14----12-14--------------14----------------------------------------
G----------13--------------------------------------------------------------
D--------------------------------------------------------------------------
A--------------------------------------------------------------------------
E--------------------------------------------------------------------------
E-----------16p14p12-14-----12----12h14p12----12-14-----16-----16-----16---
B------------------------------14----------14------------------------------
G--------------------------------------------------------------------------
D--------------------------------------------------------------------------
A--------------------------------------------------------------------------
E--------------------------------------------------------------------------
E-----16p14-12-----14h16---16p14p12-14---12----12--------------------------
B-------------------------------------------14----14p12-----14---12h14p----
G--------------------------------------------------------------------------
D--------------------------------------------------------------------------
A--------------------------------------------------------------------------
E--------------------------------------------------------------------------
E--------------------------------------------------------------------------
B---12-14---12--------------12-14-12--------------12------------12-14-12---
G------------------13\11/13--------------13\11/13------13\11/13------------
D--------------------------------------------------------------------------
A--------------------------------------------------------------------------
E--------------------------------------------------------------------------
E--------------------12-14---16-16p14-14-12-14-16-----16/17-17-17p16-16----
B--------------12-14-------------------------------------------------------
G-----13\11/13-------------------------------------------------------------
D--------------------------------------------------------------------------
A--------------------------------------------------------------------------
E--------------------------------------------------------------------------
E---14---16-17-17/19-19-19/21-21-19-19-17-17---16-16h17p16-16-----17-------
B--------------------------------------------------------------------------
G--------------------------------------------------------------------------
D--------------------------------------------------------------------------
A--------------------------------------------------------------------------
E--------------------------------------------------------------------------
E---17-17p16---------------------------------------------------------------
B------------21-21p19---19-19p17-17-17\14---14h17p14-17---14h17p14---17----
G--------------------------------------------------------------------------
D--------------------------------------------------------------------------
A--------------------------------------------------------------------------
E--------------------------------------------------------------------------
E--------------------------------------------------------------------------
B-----14h17p14h17/19-17---14-14p12-----------------------------------------
G----------------------------------13---13h14p13---14-13\11-9------9---9---
D-------------------------------------------------------------9h11---------
A--------------------------------------------------------------------------
E--------------------------------------------------------------------------
E----------------------------12-14-12--------------------------------------
B----------------------12-14----------------------12-14-12-----------------
G---9------9-9---11/13--------------------9-11/13----------13\11-9---------
D-----9h11-----------------------------------------------------------------
A--------------------------------------------------------------------------
E--------------------------------------------------------------------------
E--------------------------12-14-12----------------------------------------
B--------------------12-14----------------------12-14-12-------------------
G--------9-9---11/13--------------------9-11/13----------13\11-9-9---------
D---9h11-------------------------------------------------------------------
A--------------------------------------------------------------------------
E--------------------------------------------------------------------------
E--------------------------------------------------------------------------
B-------9h10p9----9--------------------------------------------------------
G--9h11--------11---9p11----------9h11p9----9--------9-9h11p9------9-11----
D----------------------------9h11--------11-----9h11------------11---------
A--------------------------------------------------------------------------
E--------------------------------------------------------------------------
E--------------------------------------------------------------------------
B-------12------------------9h10p9-----------9h10p9----9-------------------
G---/13----13\11-9-9---9h11--------11---9h11--------11---11p9----------9---
D-----------------------------------------------------------------9h11-----
A--------------------------------------------------------------------------
E--------------------------------------------------------------------------
E--------------------------------------------------------------------------
B-------------------------------------------9h10p9-----------9h10p9----9---
G---h11p9-----------9h11p9----9--------9h11--------11---9h11--------11-----
D---------11---9h11--------11---11p9---------------------------------------
A--------------------------------------------------------------------------
E--------------------------------------------------------------------------
E--------------------------------------------------------------------------
B--------------------------------------------------------9h10p9------------
G---11p9----------9h11p9---------9h11p9----9--------9h11--------11---9h----
D------------9h11--------11-9h11--------11---11p9--------------------------
A--------------------------------------------------------------------------
E--------------------------------------------------------------------------
E--------------------------------------------------------------------------
B------9h10p9----9------------------------------------------10/12----------
G---11--------11---11p9----------9h11p9---------9h11p9----9-11-13-11-9-----
D---------------------------9h11--------11-9h11--------11------------------
A--------------------------------------------------------------------------
E--------------------------------------------------------------------------
E--------------------------------------------------------------------------
B--------------------------------------------------------------------------
G--------------------------------------------------------------------------
D---11-9-------------------------------------------------------------------
A--------11-9-11-7-----7-7-------------------------------------------------
E------------------7h9-----------------------------------------------------

 EBAE
 Good old sunday morning, bells are ringing everywhere.
 BAEA
Goin to Carolina, it won't be long and I'll be there      

Chorus

Then back to "Intro" adding the 'Am' chord after the 'A'.

If anyone has any questions regarding this transcription, feel free to e-mail me.


A B E F#m7
variations - click chord images
Transpose chords:
Tuning:
Cool service:
View: Size:
A  A  A
Rating:
Layout:
  • Currently 2.5/5 Stars.
  • 1
  • 2
  • 3
  • 4
  • 5
 
Accuracy:
  • Currently 2.8/5 Stars.
  • 1
  • 2
  • 3
  • 4
  • 5
 
click stars to rate
Chordie recommends:
Learn to play this song & others via video guitar lessons at JamPlay.com
Songbook:
Login to add this song to your songbook
Support the artist
Preview/buy this song
MSN Music
Why this non-profit ad?

 
login to add comments/video/corrections