Watch Your Words

Alter Bridge

 4/4
  Gtr I
E S S E E S S E E E E S S E E S S E S S E
|----------------------|----------------------------|
|----------------------|----------------------------|
|----------------------|----------------------------|
|----------------------|---13-12-13---8-10-8--------|
|---6-5-6---8-10-6-5---|---------------------8-10-6-|
|-0-------0----------0-|-0----------0---------------|


~~~
E S S E E S S E E E E S S E E S S E S S E
|----------------------|------------------------------|
|----------------------|------------------------------|
|----------------------|------------------------------|
|----------------------|---13-12-13---8-10-8----------|
|---6-5-6---8-10-6-5---|---------------------7-8-[4]--|
|-0-------0----------0-|-0----------0-----------------|


Gtr II
E S S E E S S E E E E S S E E S S E S S E
|----------------------|----------------------------|
|----------------------|----------------------------|
|----------------------|----------------------------|
|----------------------|---13-12-13---8-10-8--------|
|---6-5-6---8-10-6-5---|---------------------8-10-6-|
|-0-------0----------0-|-0----------0---------------|


~~~
E S S E E S S E E E E S S E E S S E S S E
|----------------------|-------------------------------|
|----------------------|-------------------------------|
|----------------------|-------------------------------|
|----------------------|---13-12-13---8-10-8-----------|
|---6-5-6---8-10-6-5---|---------------------7-8-[4]---|
|-0-------0----------0-|-0----------0------------------|
     PM------|     PM|          PM------|     PM|

Q S S S S S S E S S S S Q S S S S S S E S S S S
|--------------------------|--------------------------|
|--------------------------|--------------------------|
|--------------------------|--------------------------|
|-0--0---0-0-0---6-0-0-5-6-|-0--0---0-0-0---6-0-0-5-6-|
|-0--0---0-0-0---6-0-0-5-6-|-0--0---0-0-0---6-0-0-5-6-|
|-0--0---0-0-0---6-0-0-5-6-|-0--0---0-0-0---6-0-0-5-6-|


 2/4
       PM|      PM|   
Q E S S Q E S S Q S S E
|-------------------|----------------|
|-------------------|----------------|
|-------------------|----------------|
|-1--0-0-0-5--0-0-0-|-12--12-12-10---|
|-1--0-0-0-5--0-0-0-|--8---8--8--8---|
|-1--0-0-0-5--0-0-0-|--8---8--8--8---|


 4/4
                                                  ~~~
E S S E E S S E E E E S S E E S S E S S E
|----------------------|-----------------------------|
|----------------------|-----------------------------|
|----------------------|-----------------------------|
|----------------------|---13-12-13---8-10-8---------|
|---6-5-6---8-10-6-5---|---------------------7-8-[4]-|
|-0-------0----------0-|-0----------0----------------|
     PM------|     PM|          PM------|     PM|

Q S S S S S S E S S S S Q S S S S S S E S S S S
|--------------------------|-----------------------------|
|--------------------------|-----------------------------|
|--------------------------|-----------------------------|
|-0--0---0-0-0---6-0-0-5-6-|-0--0---0-0-0---6-0-0-5-6----|
|-0--0---0-0-0---6-0-0-5-6-|-0--0---0-0-0---6-0-0-5-6----|
|-0--0---0-0-0---6-0-0-5-6-|-0--0---0-0-0---6-0-0-5-6----|


 2/4
       PM|      PM|   
Q E S S Q E S S Q S S E
|-------------------|--------------|
|-------------------|--------------|
|-------------------|--------------|
|-1--0-0-0-5--0-0-0-|-12--12-12-10-|
|-1--0-0-0-5--0-0-0-|--8---8--8--8-|
|-1--0-0-0-5--0-0-0-|--8---8--8--8-|


 4/4
                                                  ~~~
E S S E E S S E E E E S S E E S S E S S E
|----------------------|-----------------------------|
|----------------------|-----------------------------|
|----------------------|-----------------------------|
|----------------------|---13-12-13---8-10-8---------|
|---6-5-6---8-10-6-5---|---------------------7-8-[4]-|
|-0-------0----------0-|-0----------0----------------|


\0.5/
     PM------|     PM|          PM----|

Q S S S S S S E S S S S Q S S S S Q +Q
|--------------------------|-------------------------|
|--------------------------|-------------------------|
|--------------------------|------------[5]--(5)-----|
|-0--0---0-0-0---6-0-0-5-6-|-0--0---0-0--------------|
|-0--0---0-0-0---6-0-0-5-6-|-0--0---0-0--------------|
|-0--0---0-0-0---6-0-0-5-6-|-0--0---0-0--------------|


 2/4
       PM|      PM|   
Q E S S Q E S S Q S S E
|-------------------|----------------|
|-------------------|----------------|
|-------------------|----------------|
|-1--0-0-0-5--0-0-0-|-12--12-12-10---|
|-1--0-0-0-5--0-0-0-|--8---8--8--8---|
|-1--0-0-0-5--0-0-0-|--8---8--8--8---|


 4/4
                                                  ~~~
E S S E E S S E E E E S S E E S S E S S E
|----------------------|-----------------------------|
|----------------------|-----------------------------|
|----------------------|-----------------------------|
|----------------------|---13-12-13---8-10-8---------|
|---6-5-6---8-10-6-5---|---------------------7-8-[4]-|
|-0-------0----------0-|-0----------0----------------|

|
| Gtr III
| W W
|----------------------|-----------------------------|
|----------------------|-----------------------------|
|----------------------|-----------------------------|
|----------------------|-----------------------------|
|----------------------|-----------------------------|
|----------------------|-----------------------------|


W W
|--------------------|-----------------------|
|--------------------|-----------------------|
|--------------------|-----------------------|
|--------------------|-----------------------|
|--------------------|-----------------------|
|--------------------|-----------------------|

|
| \6
| Q E. S +H Q E. S S S +Q E
|--------------------|-----------------------|
|--0---0---0---------|-^6--6--6-6-5-(5)--5---|
|-12--12--12-(12)----|-^5--5--5-5-5-(5)--5---|
|-12--12--12-(12)----|-^3--3--3-3-3-(3)--3---|
|-10--10--10-(10)----|-^3--3--3-3-3-(3)--3---|
|--0---0---0--(0)----|-^3--3--3-3-3-(3)--3---|


Gtr III
E. S S S E +Q. S S E. S S S E +E S S S E S
|----------------------|--------------------------|
|----------0-------0-0-|-1--1-1---6-(6)-6-6-6-8-8-|
|-5--5-x-x-4-(4)---4-4-|-3--3-3-x-5-(5)-5-5-5s7-7-|
|-5--5-x-x-5-(5)---5-5-|-3--3-3-x-3-(3)-3-3-3S5-5-|
|-3--3-x-x-2-(2)---2-2-|-1--1-1-x-3-(3)-3-3-3S5-5-|
|----------------------|----------3-----3-3---5---|


Q E. S S S E +Q Q E. S S S +Q E
|--------------------|-----------------------|
|-7--7--7-7-5-5-(5)--|-^6--6--6-6-5-(5)--5---|
|-7--7--7-7-7-7-(7)--|-^5--5--5-5-5-(5)--5---|
|-7--7--7-7-7-7-(7)--|-^3--3--3-3-3-(3)--3---|
|-0--0--0-0-0-0-(0)--|-^3--3--3-3-3-(3)--3---|
|-0--0--0-0-0-0-(0)--|-^3--3--3-3-3-(3)--3---|


Gtr II
W W H. S S S S
|-------------------|-----------------------|--------------------------|
|-------------------|-----------------------|---------<7>-<7>-<5>-<5>--|
|-------------------|-----------------------|---------<7>-<7>-<5>-<5>--|
|-------------------|-----------------------|---------<7>-<7>-<5>-<5>--|
|-------------------|-----------------------|--------------------------|
|-------------------|-----------------------|--------------------------|

|
| Gtr III
| E. S S S Q +Q. E. S S S Q +E S E S W
|-------------------|-----------------------|--------------------------|
|----------0--------|-1--1-1---6--(6)-6-8-8-|-7------------------------|
|-5--5-x-x-4--(4)---|-3--3-3-x-5--(5)-5s7-7-|-7------------------------|
|-5--5-x-x-5--(5)---|-3--3-3-x-3--(3)-3S5-5-|-7------------------------|
|-3--3-x-x-2--(2)---|-1--1-1-x-3--(3)-3S5-5-|-0------------------------|
|-------------------|----------3--------5---|-0------------------------|


Gtr II
Q E. S S S E +S S S S E. S S S E +S S S S E S S
|-------------------------|----------------------------|
|-------------------------|----------------------------|
|-5--5--5-5-5-5-(5)-5-5-5-|-5--5-5-5-7-(7)-7-7-7-7-7-7-|
|-3--3--3-3-3-3-(3)-3-3-3-|-5--5-5-5-5-(5)-5-5-5-5-5-5-|
|-3--3--3-3-3-3-(3)-3-3-3-|-3--3-3-3-5-----5-5-5-5-5-5-|
|-3--3--3-3-3-3-(3)-3-3-3-|----------5-(5)-5-5-5-5-5-5-|


E. S E S S +E S S S S S S
|------------------------------|
|------------------------------|
|-7--7-7---------14S10-9-7-5-7-|
|-0--0-x-0-0-(0)--x--x-x-x-x-x-|
|-0--0-5-0-0-(0)-12S=8-7-5-3-5-|
|-0------0-0-(0)---------------|


~ ~~~
Q Q S S S S Q Q E. S S S E +S S S S
|--------------------|-------------------------|
|--------------------|-------------------------|
|-7-------------5b7--|-5--5--5-5-5-5-(5)-5-5-5-|
|-x--0--7S5-3p0------|-3--3--3-3-3-3-(3)-3-3-3-|
|-5--0---------------|-3--3--3-3-3-3-(3)-3-3-3-|
|----0---------------|-3--3--3-3-3-3-(3)-3-3-3-|


E. S S S E +S S S S E S S E. S S S E +S E. S S S S
|----------------------------|---------------------------|
|----------------------------|---------------------------|
|-5--5-5-5-7-(7)-7-7-7-7-7-7-|-7--7-7------------8-7-7-7-|
|-5--5-5-5-5-(5)-5-5-5-5-5-5-|-0--0-x-0-0-(0)-0--x-x-x-x-|
|-3--3-3-3-5-----5-5-5-5-5-5-|-0--0-5-0-0-(0)-0--6-5-5-5-|
|----------5-(5)-5-5-5-5-5-5-|-0------0-0-(0)-0----------|


~~~~
E S S E E S S E E E E S S E E S S E S S E
|----------------------|-----------------------------|
|----------------------|-----------------------------|
|----------------------|-----------------------------|
|----------------------|---13-12-13---8-10-8---------|
|---6-5-6---8-10-6-5---|---------------------7-8-[4]-|
|-0-------0----------0-|-0----------0----------------|
 ~~~ PM------|     PM|          PM------|     PM|

Q S S S S S S E S S S S Q S S S S S S E S S S S
|--------------------------|--------------------------|
|--------------------------|--------------------------|
|--------------------------|--------------------------|
|-0--0---0-0-0---6-0-0-5-6-|-0--0---0-0-0---6-0-0-5-6-|
|-0--0---0-0-0---6-0-0-5-6-|-0--0---0-0-0---6-0-0-5-6-|
|-0--0---0-0-0---6-0-0-5-6-|-0--0---0-0-0---6-0-0-5-6-|


 2/4
       PM|      PM|   
Q E S S Q E S S Q S S E
|-------------------|--------------|
|-------------------|--------------|
|-------------------|--------------|
|-1--0-0-0-5--0-0-0-|-12--12-12-10-|
|-1--0-0-0-5--0-0-0-|--8---8--8--8-|
|-1--0-0-0-5--0-0-0-|--8---8--8--8-|


 4/4
                                                  ~~~
E S S E E S S E E E E S S E E S S E S S E
|----------------------|-----------------------------|
|----------------------|-----------------------------|
|----------------------|-----------------------------|
|----------------------|---13-12-13---8-10-8---------|
|---6-5-6---8-10-6-5---|---------------------7-8-[4]-|
|-0-------0----------0-|-0----------0----------------|


\0.5/
     PM------|     PM|          PM----|

Q S S S S S S E S S S S Q S S S S Q +Q
|--------------------------|-------------------------|
|--------------------------|-------------------------|
|--------------------------|------------[5]--(5)-----|
|-0--0---0-0-0---6-0-0-5-6-|-0--0---0-0--------------|
|-0--0---0-0-0---6-0-0-5-6-|-0--0---0-0--------------|
|-0--0---0-0-0---6-0-0-5-6-|-0--0---0-0--------------|


 2/4
       PM|      PM|   
Q E S S Q E S S Q S S E
|-------------------|----------------|
|-------------------|----------------|
|-------------------|----------------|
|-1--0-0-0-5--0-0-0-|-12--12-12-10---|
|-1--0-0-0-5--0-0-0-|--8---8--8--8---|
|-1--0-0-0-5--0-0-0-|--8---8--8--8---|


 4/4
                                                  ~~~
E S S E E S S E E E E S S E E S S E S S E
|----------------------|-----------------------------|
|----------------------|-----------------------------|
|----------------------|-----------------------------|
|----------------------|---13-12-13---8-10-8---------|
|---6-5-6---8-10-6-5---|---------------------7-8-[4]-|
|-0-------0----------0-|-0----------0----------------|

|
| Gtr III
| W W
|----------------------|-----------------------------|
|----------------------|-----------------------------|
|----------------------|-----------------------------|
|----------------------|-----------------------------|
|----------------------|-----------------------------|
|----------------------|-----------------------------|


W W
|--------------------|-----------------------|
|--------------------|-----------------------|
|--------------------|-----------------------|
|--------------------|-----------------------|
|--------------------|-----------------------|
|--------------------|-----------------------|

|
| \6
| Q E. S +H Q E. S S S +Q E
|--------------------|-----------------------|
|--0---0---0---------|-^6--6--6-6-5-(5)--5---|
|-12--12--12-(12)----|-^5--5--5-5-5-(5)--5---|
|-12--12--12-(12)----|-^3--3--3-3-3-(3)--3---|
|-10--10--10-(10)----|-^3--3--3-3-3-(3)--3---|
|--0---0---0--(0)----|-^3--3--3-3-3-(3)--3---|


Gtr II
W W
|----------------------|--------------------------|
|----------------------|--------------------------|
|----------------------|--------------------------|
|----------------------|--------------------------|
|----------------------|--------------------------|
|----------------------|--------------------------|

|
| Gtr III
| E. S S S E +Q. S S E. S S S E +E S S S E S
|----------------------|--------------------------|
|----------0-------0-0-|-1--1-1---6-(6)-6-6-6-8-8-|
|-5--5-x-x-4-(4)---4-4-|-3--3-3-x-5-(5)-5-5-5s7-7-|
|-5--5-x-x-5-(5)---5-5-|-3--3-3-x-3-(3)-3-3-3S5-5-|
|-3--3-x-x-2-(2)---2-2-|-1--1-1-x-3-(3)-3-3-3S5-5-|
|----------------------|----------3-----3-3---5---|


\6
H +H W
|----------------------|-------------------------|
|----------------------|-------------------------|
|----------------------|-------------------------|
|----------------------|-------------------------|
|-0-------(0)----------|-------------------------|
|-0-------(0)----------|--3b5r===================|

|
| Q E. S S S E +Q Q E. S S S +Q E
|----------------------|-------------------------|
|-7--7--7--7--5-5-(5)--|-^6----6--6-6-5-(5)--5---|
|-7--7--7--7--7-7-(7)--|-^5----5--5-5-5-(5)--5---|
|-7--7--7--7--7-7-(7)--|-^3----3--3-3-3-(3)--3---|
|-0--0--0--0--0-0-(0)--|-^3----3--3-3-3-(3)--3---|
|-0--0--0--0--0-0-(0)--|-^3----3--3-3-3-(3)--3---|


Gtr II
Q S S E +H Q. E +H W
|-----------------------|--------------------------|-------|
|-----------------------|--------------------------|-------|
|-----------------------|--------------------------|-------|
|-----------------------|--------------------------|-------|
|-3b5---3p0-2-(2)-------|-1------------------------|-0/----|
|-----------------------|----------3-(3)-----------|-0/----|

|
| Gtr III
| E. S S S Q +Q. E. S S S Q +E S E S W
|-----------------------|--------------------------|-------|
|-----------0-----------|-1--1-1---6-----(6)-6-8-8-|-7-----|
|-5---5-x-x-4-----(4)---|-3--3-3-x-5-----(5)-5s7-7-|-7-----|
|-5---5-x-x-5-----(5)---|-3--3-3-x-3-----(3)-3S5-5-|-7-----|
|-3---3-x-x-2-----(2)---|-1--1-1-x-3-----(3)-3S5-5-|-0-----|
|-----------------------|----------3-----------5---|-0-----|


Gtr II
Q E. S S S E +S S S S E. S S S E +S S S S E S S
|-------------------------|----------------------------|
|-------------------------|----------------------------|
|-5--5--5-5-5-5-(5)-5-5-5-|-5--5-5-5-7-(7)-7-7-7-7-7-7-|
|-3--3--3-3-3-3-(3)-3-3-3-|-5--5-5-5-5-(5)-5-5-5-5-5-5-|
|-3--3--3-3-3-3-(3)-3-3-3-|-3--3-3-3-5-----5-5-5-5-5-5-|
|-3--3--3-3-3-3-(3)-3-3-3-|----------5-(5)-5-5-5-5-5-5-|


E. S S S S S E. S E E
|---------------------------|
|---------------------------|
|-7----8-8-8-8------7b8-7b8-|
|-0--0-x-x-x-x-0--0-x---x---|
|-0--0-6-6-6-6-0--0-5b6-5b6-|
|-0--0---------0--0---------|


|-3-|
S S S S S S S E S S S S E S S Q E. S S S E +S S S S
|-----------------------------------|-------------------------|
|-------------------------[6]b8-----|-------------------------|
|---------8-7-7-7-5h7p5p0-------5p2-|-5--5--5-5-5-5-(5)-5-5-5-|
|-0-0-0-0-x-x-x-x-------------------|-3--3--3-3-3-3-(3)-3-3-3-|
|-0-0-0-0-6-5-5-5-------------------|-3--3--3-3-3-3-(3)-3-3-3-|
|-0-0-0-0---------------------------|-3--3--3-3-3-3-(3)-3-3-3-|


E. S S S E +S S S S E S S E. S S S S S E S S S S S S
|----------------------------|----------------------------|
|----------------------------|----------------------------|
|-5--5-5-5-7-(7)-7-7-7-7-7-7-|-7----7-7-7-7-------8-7-7-7-|
|-5--5-5-5-5-(5)-5-5-5-5-5-5-|-0--0-x-x-x-x-0-0-0-x-x-x-x-|
|-3--3-3-3-5-----5-5-5-5-5-5-|-0--0-5-5-5-5-0-0-0-6-5-5-5-|
|----------5-(5)-5-5-5-5-5-5-|-0--0---------0-0-0---------|


~~~
S S S S S S S S S S S S S S S S S S S S S S S S S S S S Q
|---------------------------------|------------------------------|
|---------------------------------|------------------------------|
|---------------------------------|------------------------------|
|---------------------------7-----|------------------------------|
|-8-5---5---5-8-5---5---5-6---6-5-|-8-5---5---5-8-5---5---5-[6]--|
|-----0---0-------0---0-----------|-----0---0-------0---0--------|


S S S S S S S S S S S S S S S S
|-----------------------------------|
|-----------------------------------|
|-----------------------------------|
|---------------------------7-------|
|-8-5---5---5-8-5---5---5-6---6-5---|
|-----0---0-------0---0-------------|


 2/4
                           ~~~                               
S S S S S S S S S S S S Q E. S S S E +S S S S E. S S S S S S S S S
|------------------------------|---------------------------|------------------|
|------------------------------|---------------------------|------------------|
|-------------5----------------|---------------------------|------------------|
|---------------7-8---7--------|---------------------------|-----3------------|
|-8-5---5---5-------8---5-[6]--|----5-6-5-------3-5-3----5-|-6-5---5-5-6-3-5--|
|-----0---0--------------------|-0--------0-(0)-------0----|------------------|


 4/42/44/4
  E. S S S E +S  S S S E. S   S S S S S S S S   E. S S S E +S  S S S E. S
|---------------------------|-----------------|---------------------------|
|---------------------------|-----------------|---------------------------|
|---------------------------|-----------------|----7-8-7-------5-7-5----7-|
|---------------------------|-----3-----------|----x-x-x-------x-x-x----x-|
|----5-6-5-------3-5-3----5-|-6-5---5-5-6-3-5-|----5-6-5-------3-5-3----5-|
|-0--------0-(0)-------0----|-----------------|-0--------0-(0)-------0----|


 2/44/4
                                            |-3-|
S S S S S S S S E. S S S E +S S S S S S S S S
|------------------|--------------------------------|
|------------------|--------------------------------|
|-8-7-10-7-7-8-5-7-|----7-7-7-------7-7-7---8-8-8-8-|
|-x-x--x-x-x-x-x-x-|----x-x-x-------x-x-x---x-x-x-x-|
|-6-5--8-5-5-6-3-5-|----5-5-5-------5-5-5---5-5-5-6-|
|------------------|-0--------0-(0)-------0---------|


~~
E. S S S E +S S S S S S E
|--------------------------------|
|--------------------------------|
|----7-7-7-------8---7-14-12-12--|
|----x-x-x-------x---x--x--x--x--|
|----5-5-5-------5---5--5--5--5--|
|-0--------0-(0)---0-------------|


PM|
Q E. S S E S S S E Q E. S S S E +S S S S
|---------------------|-------------------------|
|---------------------|-------------------------|
|-7--7--7-7-7-7-----7-|-5--5--5-5-5-5-(5)-5-5-5-|
|-7--7--7-7-7-7-----5-|-3--3--3-3-3-3-(3)-3-3-3-|
|-5--5--5-5-5-5-0-0-5-|-3--3--3-3-3-3-(3)-3-3-3-|
|-0--0--0-0-0-0-0-0-5-|-3--3--3-3-3-3-(3)-3-3-3-|


PM|
E.S S S E +S S S S E S S E. S S S E +S S S S S E S
|---------------------------|------------------------------|
|---------------------------|------------------------------|
|-5s7-5---4-(4)-4-4-4-4-4-4-|-3--3-----5-(5)-5-5-5-5-7-----|
|-x-x-----5-(5)-5-5-5-5-5-5-|-3--3-----3-(3)-x-x-x-3-5-5---|
|-3s5-3p0-2-(2)-2-2-2-2-2-2-|-1--1-0-0-3-(3)-3-3-3-3-5-5---|
|---------------------------|------0-0-3-(3)-------3-5-5---|


E. S S E S S S S S E E Q E. S S S E +S S S S
|------------------------|-------------------------|
|------------------------|-------------------------|
|------7-7-----7-7-7---7-|-5--5--5-5-5-5-(5)-5-5-5-|
|-0--0-x-x-0-0-x-x-x-0-5-|-3--3--3-3-3-3-(3)-3-x-x-|
|-0--0-5-5-0-0-5-5-5-0-5-|-3--3--3-3-3-3-(3)-3-3-3-|
|-0--0-----0-0-0-----0-5-|-3--3--3-3-3-3-(3)-3-----|


PM|
E.S S S E +S S S S E S S E. S S S E +S S S S S E S
|---------------------------|-----------------------------|
|---------------------------|-----------------------------|
|-5s7-5---4-(4)-4-4-4-4-4-4-|-3--3-----5-(5)-5-5-5-5-7----|
|-x-x-----5-(5)-5-5-5-5-5-5-|-3--3-----3-(3)-x-x-x-3-5-5--|
|-3s5-3p0-2-(2)-2-2-2-2-2-2-|-1--1-0-0-3-(3)-3-3-3-3-5-5--|
|---------------------------|------0-0-3-(3)-------3-5-5--|
  PM------------|   PM----|

S S S S S S S S E S S S E. Q E. S S S E +S S S S
|----------------------------|-------------------------|
|----------------------------|-------------------------|
|----------------------------|-5--5--5-5-5-5-(5)-5-5-5-|
|----------------------------|-3--3--3-3-3-3-(3)-3-3-3-|
|-0-0-0-0-0-0-0-0-0-0-0-0-0--|-3--3--3-3-3-3-(3)-3-3-3-|
|-0-0-0-0-0-0-0-0-0-0-0-0-0--|-3--3--3-3-3-3-(3)-3-3-3-|


E. S S S E S S S S E S S
|-----------------------------|
|-----------------------------|
|-5--5-5-5-7--7--7-7-7-7-7-7--|
|-5--5-5-5-5--5--5-5-5-5-5-5--|
|-3--3-3-3-5--5--5-5-5-5-5-5--|
|----------5-(5)-5-5-5-5-5-5--|


E S S S S S S S S S S S S S S
|----------------------------------|
|----------------------------------|
|-------8-7-7-7-7-7-8S10-10S12-8-8-|
|-0-0-0-x-x-0-0-x-x-x--x--x--x-x-x-|
|-0-0-0-5-5-0-0-5-5-5--8--8-10-5-5-|
|-0-0-0-----0-0--------------------|


~~~
E S S S E S +E S S Q Q E. S S S E +S S S S
|--------------------------|-------------------------|
|--------------------------|-------------------------|
|-7-----8-7-----------7b8--|-5--5--5-5-5-5-(5)-5-5-5-|
|-x-0-0-8-7-0-(0)-----x----|-3--3--3-3-3-3-(3)-3-3-3-|
|-5-0-0-6-5-0-(0)-0-0-5b6--|-3--3--3-3-3-3-(3)-3-3-3-|
|---0-0-----0-(0)-0-0------|-3--3--3-3-3-3-(3)-3-3-3-|


E. S S S E +S S S S E S S S S S S S S S S S S S S S S S S
|----------------------------|---------------------------------|
|----------------------------|---------------------------------|
|-5--5-5-5-7-(7)-7-7-7-7-----|---------------------------------|
|-5--5-5-5-5-(5)-5-5-5-5-0-0-|---------------------------7-----|
|-3--3-3-3-5-(5)-5-5-5-5-0-0-|-8-5---5---5-8-5---5---5-6---6-5-|
|----------5-(5)-5-5-5-5-0-0-|-----0---0-------0---0-----------|


~~~
S S S S S S S S S S S S Q
|------------------------------|
|------------------------------|
|------------------------------|
|------------------------------|
|-8-5---5---5-8-5---5---5-[6]--|
|-----0---0-------0---0--------|


 4/4
  Q  E. S S S E +S  S S S   E. S S S E  S  S S S E S S
|-------------------------|----------------------------|
|-------------------------|----------------------------|
|-5--5--5-5-5-5-(5)-5-5-5-|-5--5-5-5-7--7--7-7-7-7-----|
|-3--3--3-3-3-3-(3)-3-3-3-|-5--5-5-5-5--5--5-5-5-5-0-0-|
|-3--3--3-3-3-3-(3)-3-3-3-|-3--3-3-3-5--5--5-5-5-5-0-0-|
|-3--3--3-3-3-3-(3)-3-3-3-|----------5-(5)-5-5-5-5-0-0-|


E. S S S E +S S S S E. S
|---------------------------|
|---------------------------|
|---------------------------|
|---------------------------|
|----5-6-5-------3-5-3----5-|
|-0--------0-(0)-------0----|


 2/44/42/4
  S S S S S S S S   E. S S S E +S  S S S E. S   S S S S S S S S
|-----------------|---------------------------|-----------------|
|-----------------|---------------------------|-----------------|
|-----------------|---------------------------|-----------------|
|-----3-----------|---------------------------|-----3-----------|
|-6-5---5-5-6-3-5-|----5-6-5-------3-5-3----5-|-6-5---5-5-6-3-5-|
|-----------------|-0--------0-(0)-------0----|-----------------|


 4/42/4
  E. S S S E +S  S S S E. S   S S  S S S S S S
|---------------------------|------------------|
|---------------------------|------------------|
|----7-8-7-------5-7-5----7-|-8-7-10-7-7-8-5-7-|
|----x-x-x-------x-x-x----x-|-x-x--x-x-x-x-x-x-|
|----5-6-5-------3-5-3----5-|-6-5--8-5-5-6-3-5-|
|-0--------0-(0)-------0----|------------------|


 4/4
                         |-3-|
E. S S S E +S S S S S S S S S
|---------------------------------|
|---------------------------------|
|----7-7-7-------7-7-7---8-8-8-8--|
|----x-x-x-------x-x-x---x-x-x-x--|
|----5-5-5-------5-5-5---5-5-5-6--|
|-0--------0-(0)-------0----------|


~~~~
E. S S S E +S S S S S S +E Q H.
|---------------------------------|-----------*|
|---------------------------------|-----------*|
|----7-7-7-------8-----14-12-(12)-|-7\--------*|
|----x-x-x-------x------x--x------|-7\--------*|
|----5-5-5-------5-0-0--5--5--(5)-|-0\--------*|
|-0--------0-(0)---0-0------------|-0\--------*|


Duration Legend
---------------
W - whole; H - half; Q - quarter; E - 8th; S - 16th; T - 32nd; X - 64th; a - acciaccatura

+ - note tied to previous; . - note dotted; .. - note double dotted
Uncapitalized letters represent notes that are staccato (1/2 duration)
Irregular groupings are notated above the duration line
Duration letters will always appear directly above the note/fret number it represents the
duration for. Duration letters with no fret number below them represent rests. Multi-
bar rests are notated in the form Wxn, where n is the number of bars to rest for. Low
melody durations appear below the staff

Tablature Legend
----------------

h - hammer-on
p - pull-off
b - bend
pb - pre-bend
r - bend release (if no number after the r, then release immediately)
/\ - slide into or out of (from/to "nowhere")
s - legato slide
S - shift slide
- natural harmonic
 n
   - artificial harmonic
n(n) - tapped harmonic
~ - vibrato
tr - trill
T - tap
TP - trem. picking
PM - palm muting
\n/ - tremolo bar dip; n = amount to dip
\n - tremolo bar down
n/ - tremolo bar up
/n\ - tremolo bar inverted dip
= - hold bend; also acts as connecting device for hammers/pulls
<> - volume swell (louder/softer)
x - on rhythm slash represents muted slash
o - on rhythm slash represents single note slash

Misc Legend
-----------

| - bar
|| - double bar
||o - repeat start
o|| - repeat end
*| - double bar (ending)
: - bar (freetime)
$ - Segno
& - Coda
Tempo markers - = BPM(8/16=s8/s16), where s8 = swing 8ths, s16 = swing 16ths

***************************************************************************************
* Generated using Power Tab Editor by Brad Larsen - http://powertab.guitarnetwork.org *
***************************************************************************************


variations - click chord images
Transpose chords:
Tuning:
Cool service:
View: Size:
A  A  A
Rating:
Layout:
  • Currently 0/5 Stars.
  • 1
  • 2
  • 3
  • 4
  • 5
 
Accuracy:
  • Currently 0/5 Stars.
  • 1
  • 2
  • 3
  • 4
  • 5
 
click stars to rate
Chordie recommends:
Learn how to play guitar at JamPlay.com
Songbook:
Login to add this song to your songbook
Support the artist
Preview/buy this song
MSN Music
Why this non-profit ad?

 
login to add comments/video/corrections