Chordie logo

Unclean    Amen



Unclean by Amen

Tabbed by Asscobra (the_asscobra@hotmail.com)
if you put this tab any where please leave it as it is
and give me credit and the band as they wrote it in the first

Tuning: Drop D [D,A,D,G,b,e]
Intro:
e|---------------------------------|
b|---------------------------------|
G|---------------------------------|
D|-4-4-5-4-4-5-4-4-5-4-4-5-4-4-5~--|
A|-4-4-5-4-4-5-4-4-5-4-4-5-4-4-5~--|
D|-4-4-5-4-4-5-4-4-5-4-4-5-4-4-5~--|

e|-----------------------------------------------------|
b|-----------------------------------------------------|
G|-----------------------------------------------------|
D|11-11-11-11-11-11-11-11--12-12-12-13-13-13-14-14-14--|
A|-9--9--9--9--9--9--9--9--10-10-10-11-11-11-12-12-12--|
D|-----------------------------------------------------|

Verse:
e|-------------------|
b|-------------------|
G|-------------------|
D|-4-4--4--4--4-4h5--|
A|-4-4--4--4--4-4h5--|
D|-4-4--4--4--4-4h5--|

Bridge:			
e|------------------|
b|------------------|
G|------------------|
D|-5/4-4-5/4-4-5/4--|
A|-5/4-4-5/4-4-5/4--|
D|-5/4-4-5/4-4-5/4--|

Chorus:
e|-----------------|
b|-----------------|
G|-----------------|
D|-4-4-4-5-5-x--7--|
A|-4-4-4-5-5-x--7--|
D|-4-4-4-5-5-x--7--|

\\"rats in paradise\\"
e|---------------------|------------------|---------------------|
b|---------------------|------------------|---------------------|
G|---------------------|------------------|---------------------|
D|-4-4-4-9~--4-4-4-9~--|-5-5-5-7-7-7-8-8--|-10-10-10-5-5-5-7-7--|
A|-4-4-4-9~--4-4-4-9~--|-5-5-5-7-7-7-8-8--|-10-10-10-5-5-5-7-7--|
D|-4-4-4-9~--4-4-4-9~--|-5-5-5-7-7-7-8-8--|-10-10-10-5-5-5-7-7--|



Important: The song above is NOT stored on the Chordie server. The original song is hosted at www.xguitar.com. Chordie works as a search engine and provides on-the-fly formatting. Chordie does not index songs against artists/composers will. To remove this song please click here.

This song is displayed as text-only. Transposing and tuning is only available for chordpro-songs.

Login - add to songbook

Rating click stars to rate

Layout
Accuracy

SHARE PAGE  



You need to log in to post comments