Guitar Tabs, Chords and Lyrics


California's Bleeding    Amen



ARTIST: Amen
TRACK:  California's Bleeding
ALBUM:  Death Before Musick

TABBED BY: Ben (Death_Concession_666@hotmail.com)
WRITTEN BY: Casey Chaos

GUITARISTS: Paul Fig & Sonny Mayo / Rich Jones & Matt Montgomery
TUNING: Drop D ( D A D G B E )


INTRO 0:06/0:20

|------------------------------------
|------------------------------------
|--7~~~~~~~~~~~~-5h6p5-7~~~~~~~~~~~--
|------------------------------------
|------------------------------------
|------------------------------------


MAIN RIFF 0:20/0:34

|-----------------------      |-----------------
|-----------------------      |-----------------
|-----------------------      |-----------------
|--10--12-12-10-12--12--      |--5--7-7-5-7--7--
|--10--12-12-10-12--12--      |--3--5-5-3-5--5--
|--10--12-12-10-12--12--  or  |----------------- x3

|--------------------------       |--------------------
|--------------------------       |--------------------
|--------------------------       |--------------------
|--10--12-12-10-12--8--10--       |--5--7-7-5-7--3--5--
|--10--12-12-10-12--8--10--       |--3--5-5-3-5--1--3--
|--10--12-12-10-12--8--10--   or  |--------------------

|-----------------------      |-----------------
|-----------------------      |-----------------
|-----------------------      |-----------------
|--10--12-12-10-12--12--      |--5--7-7-5-7--7--
|--10--12-12-10-12--12--      |--3--5-5-3-5--5--
|--10--12-12-10-12--12--  or  |----------------- x3

|--------------------------       |--------------------
|--------------------------       |--------------------
|--------------------------       |--------------------
|--10--12-12-10-12--8--10--       |--5--7-7-5-7--3--5--
|--10--12-12-10-12--8--10--       |--3--5-5-3-5--1--3--
|--10--12-12-10-12--8--10--   or  |--------------------


MAIN RIFF (LET RING) 0:34/0:41

|-----------------------      |-----------------
|-----------------------      |-----------------
|-----------------------      |-----------------
|--10--12-12-10-12--12--      |--5--7-7-5-7--7--
|--10--12-12-10-12--12--      |--3--5-5-3-5--5--
|--10--12-12-10-12--12--  or  |----------------- x3

|--------------------------       |--------------------
|--------------------------       |--------------------
|--------------------------       |--------------------
|--10--12-12-10-12--8--10--       |--5--7-7-5-7--3--5--
|--10--12-12-10-12--8--10--       |--3--5-5-3-5--1--3--
|--10--12-12-10-12--8--10--   or  |--------------------


CHORUS 0:41/0:55

|---------------------------------------------------------------------
|---------------------------------------------------------------------
|---------------------------------------------------------------------
|--7-7-8-7-7-7-8-7--5-5-7-5-5-5-7-5--3-3-5-3-3-3-5-3-3-3-5-3-0--------
|--5-5-5-5-5-5-5-5--5-5-5-5-5-5-5-5--3-3-3-3-3-3-3-3-3-3-3-3-0-3-3-3--
|-------------------5-5-5-5-5-5-5-5--3-3-3-3-3-3-3-3-3-3-3-3-0-3-3-3--

|---------------------------------------------------------------------
|---------------------------------------------------------------------
|---------------------------------------------------------------------
|--7-7-8-7-7-7-8-7--5-5-7-5-5-5-7-5--3-3-5-3-3-3-5-3-5-5-5-5-5-5-5-5--
|--5-5-5-5-5-5-5-5--5-5-5-5-5-5-5-5--3-3-3-3-3-3-3-3-5-5-5-5-5-5-5-5--
|-------------------5-5-5-5-5-5-5-5--3-3-3-3-3-3-3-3-5-5-5-5-5-5-5-5--


MAIN RIFF 0:58/1:11

|-----------------------      |-----------------
|-----------------------      |-----------------
|-----------------------      |-----------------
|--10--12-12-10-12--12--      |--5--7-7-5-7--7--
|--10--12-12-10-12--12--      |--3--5-5-3-5--5--
|--10--12-12-10-12--12--  or  |----------------- x3

|--------------------------       |--------------------
|--------------------------       |--------------------
|--------------------------       |--------------------
|--10--12-12-10-12--8--10--       |--5--7-7-5-7--3--5--
|--10--12-12-10-12--8--10--       |--3--5-5-3-5--1--3--
|--10--12-12-10-12--8--10--   or  |--------------------

|-----------------------      |-----------------
|-----------------------      |-----------------
|-----------------------      |-----------------
|--10--12-12-10-12--12--      |--5--7-7-5-7--7--
|--10--12-12-10-12--12--      |--3--5-5-3-5--5--
|--10--12-12-10-12--12--  or  |----------------- x3

|--------------------------       |--------------------
|--------------------------       |--------------------
|--------------------------       |--------------------
|--10--12-12-10-12--8--10--       |--5--7-7-5-7--3--5--
|--10--12-12-10-12--8--10--       |--3--5-5-3-5--1--3--
|--10--12-12-10-12--8--10--   or  |--------------------


MAIN RIFF (LET RING) 1:11/1:18

|-----------------------      |-----------------
|-----------------------      |-----------------
|-----------------------      |-----------------
|--10--12-12-10-12--12--      |--5--7-7-5-7--7--
|--10--12-12-10-12--12--      |--3--5-5-3-5--5--
|--10--12-12-10-12--12--  or  |----------------- x3

|--------------------------       |--------------------
|--------------------------       |--------------------
|--------------------------       |--------------------
|--10--12-12-10-12--8--10--       |--5--7-7-5-7--3--5--
|--10--12-12-10-12--8--10--       |--3--5-5-3-5--1--3--
|--10--12-12-10-12--8--10--   or  |--------------------


CHORUS 1:18/1:32

|---------------------------------------------------------------------
|---------------------------------------------------------------------
|---------------------------------------------------------------------
|--7-7-8-7-7-7-8-7--5-5-7-5-5-5-7-5--3-3-5-3-3-3-5-3-3-3-5-3-0--------
|--5-5-5-5-5-5-5-5--5-5-5-5-5-5-5-5--3-3-3-3-3-3-3-3-3-3-3-3-0-3-3-3--
|-------------------5-5-5-5-5-5-5-5--3-3-3-3-3-3-3-3-3-3-3-3-0-3-3-3--

|---------------------------------------------------------------------
|---------------------------------------------------------------------
|---------------------------------------------------------------------
|--7-7-8-7-7-7-8-7--5-5-7-5-5-5-7-5--3-3-5-3-3-3-5-3-5-5-5-5-5-5-5-5--
|--5-5-5-5-5-5-5-5--5-5-5-5-5-5-5-5--3-3-3-3-3-3-3-3-5-5-5-5-5-5-5-5--
|-------------------5-5-5-5-5-5-5-5--3-3-3-3-3-3-3-3-5-5-5-5-5-5-5-5--


MIDDLE EIGHT 1:32/1:59

|----------------------------------------------
|--15--------------------15-------------15-17--
|------14--15--14-15-14------14--15--14--------
|----------------------------------------------
|----------------------------------------------
|----------------------------------------------

|----------------------------------------------
|--15--------------------15-------------17^----
|------14--15--14-15-14------14--15--14--------
|----------------------------------------------
|----------------------------------------------
|----------------------------------------------

|----------------------------
|----------------------------
|----------------------------
|--12-12-10-12---------------
|--12-12-10-12---------------
|--12-12-10-12--12-12-10-12-- x8


CHORUS 1:59/2:14

|---------------------------------------------------------------------
|---------------------------------------------------------------------
|---------------------------------------------------------------------
|--7-7-8-7-7-7-8-7--5-5-7-5-5-5-7-5--3-3-5-3-3-3-5-3-3-3-5-3-0--------
|--5-5-5-5-5-5-5-5--5-5-5-5-5-5-5-5--3-3-3-3-3-3-3-3-3-3-3-3-0-3-3-3--
|-------------------5-5-5-5-5-5-5-5--3-3-3-3-3-3-3-3-3-3-3-3-0-3-3-3--

|---------------------------------------------------------------------
|---------------------------------------------------------------------
|---------------------------------------------------------------------
|--7-7-8-7-7-7-8-7--5-5-7-5-5-5-7-5--3-3-5-3-3-3-5-3-5-5-5-5-5-5-5-5--
|--5-5-5-5-5-5-5-5--5-5-5-5-5-5-5-5--3-3-3-3-3-3-3-3-5-5-5-5-5-5-5-5--
|-------------------5-5-5-5-5-5-5-5--3-3-3-3-3-3-3-3-5-5-5-5-5-5-5-5--


MAIN RIFF (LET RING) 2:14/2:36

|-----------------------      |-----------------
|-----------------------      |-----------------
|-----------------------      |-----------------
|--10--12-12-10-12--12--      |--5--7-7-5-7--7--
|--10--12-12-10-12--12--      |--3--5-5-3-5--5--
|--10--12-12-10-12--12--  or  |-----------------



^  = Bend
~  = Tidle
h  = Hammer On
p  = Pull Off
/  = Slide
() = Natural Harmonic
.  = Palm Mute


Important: The song above is NOT stored on the Chordie server. The original song is hosted at www.xguitar.com. Chordie works as a search engine and provides on-the-fly formatting. Chordie does not index songs against artists'/composers' will. To remove this song please click here.

This song is displayed as text-only. Transposing and tuning is only available for chordpro-songs.

Login - add to songbook

Rating click stars to rate

Layout
Accuracy

SHARE PAGE  




You need to log in to post comments