Chordie logo


Oblivion Stereo    Amen



Oblivion Stereo â€" Amen
Tabbed By Robin West (robermak@hotmail.com)
First tab…almost correct, could do with some tuning but it sounds ok…

Drop D Tuning

* - Notes


---------------------------------------------------------------|     | ----11---(on 4th)
---------------------------------------------------------------|     |
---------------------------------------------------------------|     |
-----10-10-10-10-10-10-10-8------------------------------------|     |
-----10-10-10-10-10-10-10-8------------------------------------|     |
-----10-10-10-10-10-10-10-8------------------------------------|   X4|

----------------------------------------------------------|
----------------------------------------------------------|
----------------------------------------------------------|
------10-10----3-3-----8-8---*(3)(0)(3)(0)----------------|
------10-10----3-3-----8-8---*(3)(0)(3)(0)----------------|
------10-10----3-3-----8-8---*(3)(0)(3)(0)----------------|---*(0)(0)(0)(0) (played at same time)

--------------------------------------------------------------------
--------------------------------------------------------------------
--------------------------------------------------------------------
------10-10----3-3-----8-8---8-10-10â€"(hold on 2nd time)-------------
------10-10----3-3-----8-8---8-10-10--------------------------------
------10-10----3-3-----8-8---8-10-10--------------------------------


--------------------------------------------------------------------
--------------------------------------------------------------------
--------------------------------------------------------------------
--------------------------------------------------------------------
--------------------------------------------------------------------
--~#^*---3--33-----1------01/6--------01/8----~#^-------------------
(^Pick Scrapes^ Let Ring)
^^^^^^^^^^^^^^^^^^^^^^^^^
(played in background)
----------------888-6666-555-6666-----------------------------------
--------------------------------------------------------------------
--------------------------------------------------------------------
--------------------------------------------------------------------
--------------------------------------------------------------------
--------------------------------------------------------------------


--------------------------------------------------------------------
--------------------------------------------------------------------
--------------------------------------------------------------------
----10-10~--15-15---8-8â€"(3)(0)(3)(0)--------------------------------
----10-10~--15-15---8-8â€"(3)(0)(3)(0)--------------------------------
----10-10~--15-15---8-8â€"(3)(0)(3)(0)--------------------------------

--------------------------------------------------------------------
--------------------------------------------------------------------
--------------------------------------------------------------------
----10-10~--15-15---8-8â€"8-10-10-------------------------------------
----10-10~--15-15---8-8â€"8-10-10-------------------------------------
----10-10~--15-15---8-8â€"8-10-10-------------------------------------

There are some other riffs scattered around the song but I’m not sure where they go…

--------------------------------------------------------------------
--------------------------------------------------------------------
--------------------------------------------------------------------
--------------------------------------------------------------------
--------------------------------------------------------------------
-----3-33----1-----01/6-----------01/8------------------------------
(played at same time)
-----3-33----1--------66666666--------888888888---------------------
--------------------------------------------------------------------
--------------------------------------------------------------------
--------------------------------------------------------------------
--------------------------------------------------------------------
--------------------------------------------------------------------
Outro after Chorus


--------------------------------------------------------------------
--------------------------------------------------------------------
--------------------------------------------------------------------
--------------------------------------------------------------------
--------------------------------------------------------------------
----88---88----88----88-8-10-----#~‘*-------------------------------

just listen to the song and its easy to work out… some bits aren’t 100% any suggestions, corrections or questions are welcome…E-Mail me!



Important: The song above is NOT stored on the Chordie server. The original song is hosted at www.xguitar.com. Chordie works as a search engine and provides on-the-fly formatting. Chordie does not index songs against artists/composers will. To remove this song please click here.

This song is displayed as text-only. Transposing and tuning is only available for chordpro-songs.

Login - add to songbook

Rating click stars to rate

Layout
Accuracy

SHARE PAGE  




You need to log in to post comments