Chordie logo


Justified    Amen



Justified (lead guitar)

guitar 2

E---------------------------
B--17b-17b-17b-17b-17b-17b--
G--16b-16b-16b-16b-16b-16b--
D---------------------------
A---------------------------
D---------------------------

Main Riff

E-(-repeat this)-----------------
B----(below)---------------------
G--------------------------------
D------4------------5-7----------
A-------------------3-5----------
D--2-0---2-0-2-0-----------------

put on phaser/flanger, set neck pickup volume to 0 and flick the switch randomly
Chorus (lead) (0.45)

E---------------------------------------
B---------------------------------------
G--2b-2-0-2-0---------------------------
D---------------------------------------
A---------------------------------------
D---------------------------------------

Fill (1.00)

E--xxxxxxxxxxxxxxxx---------------------
B--xxxxxxxxxxxxxxxx---------------------
G--xxxxxxxxxxxxxxxx---------------------
D--xxxxxxxxxxxxxxxx---------------------
A--xxxxxxxxxxxxxxxx---------------------
D--xxxxxxxxxxxxxxxx---------------------

at 1.15 guitar 2 does the pickup/phaser thing again
Chorus 2 (1.31)

lead guitar

E--------------------------------------------------------------------------------------------------------------------
B-------------------17b-----8---------14b--14b--14b--14b-14b-14b-15b-15b-15b-15b-15b-15b--17b-17b-17b-17b-17b-17b----
G---2b-2-0-2-0-2b---------9---7-------13b--13b--13b--13b-13b-13b-14b-14b-14b-14b-14b-14b--16b-16b-16b-16b-16b-16b----
D--------------------------------------------------------------------------------------------------------------------
A--------------------------------------------------------------------------------------------------------------------
D-------------------------------------this above part is played in other parts of the song, not just the chorus-----
Interlude (2.01)

E--------------------------------------------------------------
B--------------------------------------------------------------
G----------------------------------------------------------0---
D----------------------------------------------------------0---
A--------------------with this thrown in every so often--------
D---2-0---2222-2-0---------------------------------------------

At 2.30 there is a slow pick scratch on the bottom d string, then it suddenly flips off.

Ending riff

E-----------------------------------------------
B-----------------------------------------------
G-----------------------------------------------
D--2-3-2-3-5-7-2-3-2-3-5-7-2-3-2-3-5-7-2-3-2----
A--2-3-2-3-5-7-2-3-2-3-5-7-2-3-2-3-5-7-2-3-2----
D--2-3-2-3-5-7-2-3-2-3-5-7-2-3-2-3-5-7-2-3-2----
Rythmn Guitar (everything else is the same as the lead guitar)
Intro Riff

E-------------------------------------------------------
B--14-14-14-14-14-14-14-15-17-17-17-17-17--17--17-------
G-------------------------------------------------------
D--11-11-11-11-11-11-11-12-14-14-14-14-14b-14b-14b------
A-------------------------------------------------------
D-------------------------------------------------------

bend the 14 so the chord sounds horrible

Riff 1 (played at 0.30)

E----------------------------------
B----------------------------------
G------------------------7---------
D--------------2-3-2-3-5-7---------
A--2-3-0-7-----2-3-2-3-5-7---------

Chorus Riff (0.45)

E------------------------------------
B------------------------------------
G------------------555555555555555---
D--2222222200000000555555555555555---
A--2222222200000000333333333333333---
D--2222222200000000------------------

Riff 2 (2.16)

E--------------------------------
B--------------------------------
G--------------------------------
D-------4------------------------
A--------------------------------


Important: The song above is NOT stored on the Chordie server. The original song is hosted at www.xguitar.com. Chordie works as a search engine and provides on-the-fly formatting. Chordie does not index songs against artists/composers will. To remove this song please click here.

This song is displayed as text-only. Transposing and tuning is only available for chordpro-songs.

Login - add to songbook

Rating click stars to rate

Layout
Accuracy

SHARE PAGE  




You need to log in to post comments