eToCache5 = ""; ?> You Can Do Magic by America - guitar chords, guitar tabs and lyrics - chordie

You Can Do Magic

America

e|-12--------10--------7~~~--|-7p5------5----------------|

B|----12--8-----10--7--------|-----8--5---8-5----5/8--5--|
G|---------------------------|----------------7----------|
D|---------------------------|---------------------------|
A|---------------------------|---------------------------|
E|---------------------------|---------------------------|
e|-15p12---10/12~~~--|
B|-------------------|
G|-------------------|
D|-------------------|
A|-------------------|
E|-------------------|

 EmDMajEmDmajEm
"I never believed in things that I couldn't see
 DMajEmDmajEm
 I said if I can't feel it then how can it be
 DMajEmDMajEmDMaj
  No, no magic could happen to me       
 EmDMajEmDMajEm
 And then I saw you, I couldn't believe it,  
 DMajEmDMajEm
 You took my heart, I couldn't retrieve it,  
 DMajEmDMaj
 Said to myself, what's it all about
 CMajDMaj
  Now I know there can be no doubt"

CHORUS(Em and DMaj Chords with the same rythm as verse parts):

"You can do magic
You can have anything that you desire
Magic, and you know
You're the one who can put out the fire"

POST-CHORUS(Same chords and rythm):

"You know darn well
When you cast your spell
~~~~~~~~
e|-------------------19p15--------|


you will get your way
When you hypnotize
~~~~~~~~~~~
e|----------------15p12-----------|


with your eyes
A heart of stone can turn to clay".
~~~~~~~~~
e|------------------------------5h7---------|


(And then, this is heard during the "doo-doos" part; each note
is for every "doo")
e|-7--5--0--2--3--|--7--5--0--2--3--2---0--|
B|----------------|-------------------3----|


2nd VERSE:

"And when the rain is beatin' upon the window pane
And when the night it gets so cold,
When I can't sleep
e|----------------15p12---10h12~~~--|
B|----------------------------------|
G|----------------------------------|


Again you come to me
I hold you tight, the rain disappears
Who would believe it
With a word you dry my tears"

(Repeat CHORUS part)

2nd POST-CHORUS:

"You know darn well
When you cast your spell
~~~~~~~
e|----------------------15h19-------|


you will get your way
When you hypnotize
~~~~~~~~~~~~
e|-----------------15p12------------|


with your eyes
A heart of stone can turn to clay"
~~~~~~~~~
e|--------------------------------5h7---------|


(Repeat "doo-doos" part)

 CMaj
 "And If I wanted to
 BmEm
  I could never be free
 AmBm
 I never believed it was true
 CMajDMaj
 But now it's so clear to me"

(Repeat CHORUS part)

3rd POST-CHORUS:

"You know darn well
When you cast your spell
~~~~~~~~~
e|----------------------15h19---------|


you will get your way
When you hypnotize
~~~~~~~~~~
e|-----------------5h7----------|


with your eyes
A heart of stone can turn to clay"
~~~~~~~~~
e|--------------------------------15p12---------|


(Repeat "doo-doos" part)

Comments:jcrp_21@hotmail.com


Am Bm Cmaj Dmaj Dmaj Em
variations - click chord images
Transpose chords:
Tuning:
Cool service:
View: Size:
A  A  A
Rating:
Layout:
  • Currently 2.3/5 Stars.
  • 1
  • 2
  • 3
  • 4
  • 5
 
Accuracy:
  • Currently 3.8/5 Stars.
  • 1
  • 2
  • 3
  • 4
  • 5
 
click stars to rate
Chordie recommends:
Learn to play this song & others via video guitar lessons at JamPlay.com
Songbook:
Login to add this song to your songbook
Support the artist
Preview/buy this song
MSN Music
Why this non-profit ad?

 
login to add comments/video/corrections