Guitar Tabs, Chords and Lyrics


Hi-Fi Killer    American Hi Fi



Band- American Hi-Fi
Song- Hi-Fi Killer (Rhythm Guitar)
Album- American Hi-Fi
Tabber- USD4Ever22	

Standard Tuning

Intro/Verse
----------------------------------------------------------------------
----------------------------------------------------------------------
-------5555------7777-------------------------------------------------
-22222-5555-5555-7777-------------------------------------------------
-22222-3333-5555-5555-------------------------------------------------
-00000------3333------------------------------------------------------

Chorus
---------------------------------|------------------------------------
---------------------------------|------------------------------------
-5555-7777-99999-10-10-10-10-10--|-8-10-------------------------------
-xxxx-xxxx-xxxxx--x--x--x--x--x--|-8-10-------------------------------
-3333-5555-77777--8--8--8--8--8--|-6-8--------------------------------
---------------------------------|------------------------------------

Bridge
----------------------------------------------------------------------
----------------------------------------------------------------------
----------------------------------------------------------------------
-5-55-5-55-5-3-33-3-33-3----------------------------------------------
-5-55-5-55-5-3-33-3-33-3----------------------------------------------
-3-33-3-33-3-1-11-1-11-1----------------------------------------------

Order-
Intro
Verse
Chorus
Intro
Verse
Chorus
Bridge
Intro (during solo, and also palm mute after solo)


Important: The song above is NOT stored on the Chordie server. The original song is hosted at www.xguitar.com. Chordie works as a search engine and provides on-the-fly formatting. Chordie does not index songs against artists'/composers' will. To remove this song please click here.

This song is displayed as text-only. Transposing and tuning is only available for chordpro-songs.

Login - add to songbook

Rating click stars to rate

Layout
Accuracy

SHARE PAGE  




You need to log in to post comments