Guitar Tabs, Chords and Lyrics


Scar    American Hi Fi



Song-Scar(American Hi-Fi)
Drop D (DADGBE)


Intro (after Drums)
|--------------------------------------------------------|
|--------------------------------------------------------|
|--------------5/7------------------------------3-3-3-3--|           Repeat x4
|------0-0-----5/7----5-5---7-7------3-3-3-3----3-3-3-3--|
|------0-0-----3/5----5-5---7-7------3-3-3-3----1-1-1-1--|
|------0-0------------5-5---7-7------3-3-3-3-------------|


Verse (Quietly in the background)
|--------------------------------------------------------------|
|--------------------------------------------------------------|
|--------------------------------------------------------------|
|----3333333333---55X55--555555--3333333333---55X55--555555----|         Repeat x2
|----3333333333---55X55--555555--3333333333---55X55--555555----|
|----3333333333---55X55--555555--3333333333---55X55--555555----|

Pre-Chorus 
|---------------------777---888---777---888----------------------------------|
|---------------------xxx----xxx--xxx--xxx-----------------------------------|
|---------------------555---666---555---666----------------------------------|          ( * Is Palm Mute)
|----5555---1111------------------------------5-555-----3-333-----5555---111-|
|----5555---1111------------------------------5-555-----3-333-----5555---111-|
|----5555---1111------------------------------5-555-----3-333-----5555---111-|
                                                                                                                          ** 
Chorus
|------------------------------------------------------------------------------------------|
|------------------------------------------------------------------------------------------|
|--------------------------33-----------------------------------33------------------33-----| Hold the last note
|------5555---3333----55---33--1111111------5555---3333----55---33--1111111----55---33---1-|                     |------5555---3333----55---11--1111111------5555---3333----55---11--1111111----55---11---1-|
|------5555---3333----55--------1111111------5555---3333----55-------1111111----55-------1-|

After Chorus
|--------------------------------------------------------------|
|--------------------------------------------------------------|
|--------------5/7-----------------------------3-3-3-3--|           Repeat x2
|------0-0-----5/7----5-5---7-7------3-3-3-3----3-3-3-3---|
|------0-0-----3/5----5-5---7-7------3-3-3-3----1-1-1-1---|
|------0-0------------5-5---7-7------3-3-3-3----------------|


I can’t work out the solo but that’s all you need to Know.
Song order-
Intro
Verse
Pre-Chorus
Chorus
After Chorus
Verse
Pre-Chorus
Chorus
After Chorus(With Guitar Solo)
Outro


Important: The song above is NOT stored on the Chordie server. The original song is hosted at www.xguitar.com. Chordie works as a search engine and provides on-the-fly formatting. Chordie does not index songs against artists'/composers' will. To remove this song please click here.

This song is displayed as text-only. Transposing and tuning is only available for chordpro-songs.

Login - add to songbook

Rating click stars to rate

Layout
Accuracy

SHARE PAGE  




You need to log in to post comments