Guitar Tabs, Chords and Lyrics


Built for Speed    American Hi Fi



Band: American Hi-Fi
Song: Built For Speed
Album: The Art Of Losing
Track: 10
Year: 2003

Tabbed by: CT

Tuning: D A D G B E

: = let ring
\\ = slide down

This is a great song, and it\'s easy to play. But I have not figured out the solos yet.
This is also my first tab.

      x1                                                                                                   
|------|
|------|
|------|
|-888:-|
|-888:-|
|-888:-|

Part 1                                                       x2                                          
|-------------------------------------------------------------|
|-------------------------------------------------------------|
|-----------------------------------88888--88888888-5555-8888-|
|-88888--8888-7777-55555--5555-3333-88888--88888888-5555-8888-|
|-88888--8888-7777-55555--5555-3333-66666--66666666-3333-6666-|
|-88888--8888-7777-55555--5555-3333---------------------------|

Chours      x3                 
|------------|--------------------------------|
|------------|--------------------------------|
|-------8888-|-5555-8888--555-8-10------------|
|-88-33-8888-|-5555-8888--555-8-10--8888-3333-|
|-88-33-6666-|-3333-6666--333-6-8---8888-3333-|
|-88-33------|----------------------8888-3333-|


Then:

Part 1
Chours
Part 1 only x1

Part 2               x1
|---------------------|
|---------------------|
|-----------8888-5555-|
|-8888-5555-8888-5555-|
|-8888-5555-6666-3333-|
|-8888-5555-----------|

Part 3                 x2
|-----------------------|
|-----------------------|
|-888-777-888-777-88-77-|
|-888-777-888-777-88-77-|
|-666-555-666-555-66-55-|
|-----------------------|


Chours 2    x3                     x2
|------------|-----------|----------|
|------------|-----------|----------|
|-------8888-|-5555-8888-|-555-8-10-|
|-88-33-8888-|-5555-8888-|-555-8-10-|
|-88-33-6666-|-3333-6666-|-333-6-8--|
|-88-33------|-----------|----------|

Chours 3                   x3
|---------------------------|
|---------------------------|
|---------------888888-1010-|
|-888888-333333-888888-1010-|
|-888888-333333-666666-8-8--|
|-888888-333333-------------|

End
|----------------|
|----------------|
|----------------|
|-8-xx-88-xx-88\\-|
|-8-xx-88-xx-88\\-|


Important: The song above is NOT stored on the Chordie server. The original song is hosted at www.xguitar.com. Chordie works as a search engine and provides on-the-fly formatting. Chordie does not index songs against artists'/composers' will. To remove this song please click here.

This song is displayed as text-only. Transposing and tuning is only available for chordpro-songs.

Login - add to songbook

Rating click stars to rate

Layout
Accuracy

SHARE PAGE  




You need to log in to post comments