Guitar Tabs, Chords and Lyrics


Nothing Left to Lose    American Hi Fi



hey, this is my first tab everrrrrr, so yeah forgive me if i make mistakes, e-mail corrections to me at so_unprepared@hotmail.com

/ = slide up to the fret after it ie /0 would mean slide to 0
INTRO/VERSES Guitar one starts on own, then on second time second guitar and bass kick in. all playing same
--------------------------------------------
--------------------------------------------
--------------------------------------------
-777/---22--4--555----12-12-12-12-12-12    Repeat until...........
-777/---22--4--555----12-12-12-12-12-12
-555/---00--2--333----10-10-10-10-10-9

Pre-Chorus (kind of)
--------------------------------------------
--------------------------------------------
--------------------------------------------
-77---777----777-----777---strum till chorus
-77---777----777-----777---strum till chorus
-55---555----555-----555---strum till chorus

Chorus

--------------------------------------------
--------------------------------------------
--------------------------------------------
-7777----2222-22--7777--1212121212-11
-7777----2222-22--7777--1212121212-11
-5555----0000-00--5555--1010101010-9

after chorus
--------------------------------------------
--------------------------------------------
--------------------------------------------
-7777-9999-1111-12121212----7777--9999--999--11--12---------(1 =11)
-xxxx--xxxx-xxxx--xxxxxxxxx----xxxxx--xxxx--999--11--12
-5555-7777-9999-10101010----5555--7777--777--9---10---------(its ten)

Bridge(not 100%)
--------------------------------------------
--------------------------------------------
--------------------------------------------
-77-22--44-2222-------------------------- keep repeating until.....
-77-22--44-2222--------------------------
-55-00--22-0000--------------------------

\"solo\"
--------------------------------------------
--------------------------------------------
-13/10/8/6---------------------------------
--------------------------------------------
--------------------------------------------
--------------------------------------------
Repeat chorus and after chorus figure it out, its not hard.
then intro again and end on
--------------------------------------------
--------------------------------------------
--------------------------------------------
-777/0-------------------------------------
-777/0-------------------------------------
-555/0-------------------------------------

cheers! i kno its not 100% e-mail me if u know how i can improve it i;l try my best too.
sounprepared


Important: The song above is NOT stored on the Chordie server. The original song is hosted at www.xguitar.com. Chordie works as a search engine and provides on-the-fly formatting. Chordie does not index songs against artists'/composers' will. To remove this song please click here.

This song is displayed as text-only. Transposing and tuning is only available for chordpro-songs.

Login - add to songbook

Rating click stars to rate

Layout
Accuracy

SHARE PAGE  




You need to log in to post comments