Guitar Tabs, Chords and Lyrics


The Art of Losing    American Hi Fi



Transcribed by: Chris Ascherman
Author: American HI FI
Song: The art of losing

Dropped D
Really simple...just power chords...easy....
99.9% correct..
**I think i got a weird file since its not released yet and this may kinda weird ill 
	update once i know if its full or not..**
send me suggestions at caguitar84@hotmail.com
how i play it ..sounds great.

Intro: 
-------------------------------------------------------------------------------------
------------------------------------------------------------------------------------ 
-----------------------------------------------------------------------7----5--------
-0-0--2--2---------------------------9-9--7-7--then leading to verse..-7-x8-5-x8-----
-0-0--2--2--as many times as needed--7-7--5-5--------------------------5----3--------
-0-0--2--2---------------------------------------------------------------------------

Verse/Chorus::
-------------------------------------------------------------------------------------
------------------------------------------------------------------------------------ 
-------------------------------------------------------------------------------------
 2--2--2--2-------10--10--10--10-------5--5--5--5--------12--12--12------------------
-2--2--2--2-------10--10--10--10-------5--5--5--5--------12--12--12------------------
-2--2--2--2-------10--10--10--10-------5--5--5--5--------12--12--12------------------
3 times then...

start after the (sounds like a flat) "...own worst enemy...."
-------------------------------------------------------------------------------------
------------------------------------------------------------------------------------ 
------------------------------------------------------------------------------------
--7--7--7--7--7--7--7--7-------10--10--10--10--10--10--10--10-----------------------
--7--7--7--7--7--7--7--7-------10--10--10--10--10--10--10--10-----------------------
--7--7--7--7--7--7--7--7-------10--10--10--10--10--10--10--10-----------------------

Bridge:
-------------------------------------------------------------------------------------
-------------------------------------------------------------------------------------
-------------------------------------------------------------------------------------
--2----2--------------0-0---2---2----------------------------------------------------
--2----2-

Important: The song above is NOT stored on the Chordie server. The original song is hosted at www.xguitar.com. Chordie works as a search engine and provides on-the-fly formatting. Chordie does not index songs against artists'/composers' will. To remove this song please click here.

This song is displayed as text-only. Transposing and tuning is only available for chordpro-songs.

Login - add to songbook

Rating click stars to rate

Layout
Accuracy

SHARE PAGE  




You need to log in to post comments