Guitar Tabs, Chords and Lyrics


The Breakup Song    American Hi Fi



The Breakup Song
American Hi-Fi
Tabbed by: Brian L.
Questions or Comments?
Email: IcyShado@msn.com

-Great song, easy too
-I know that I\'m missing Guitar 2 that has the intro

Drop D Tuning

Intro
e|----------
B|----------
G|----------
D|-3--5--1--  x4  
A|-3--5--1--
D|-3--5--1--

Verse
e|--------------------
B|--------------------
G|-----------55-------
D|-88---33---55---11--  x3, Then palm mute x2
A|-88---33---33---11--
D|-88---33--------11--

Chorus
e|------------------------
B|------------------------
G|-----------5555---------
D|-88---33---5555---1111--  x2
A|-88---33---3333---1111--
D|-88---33----------1111--

e|---------------------------
B|---------------------------
G|---------------5555--------
D|-8888---3333---5555--1111--  x2
A|-8888---3333---3333--1111--
D|-8888---3333---------1111--

Bridge
During the solo, Guitar 1 plays this
e|---------------------------
B|---------------------------
G|---------------5555--------
D|-8888---3333---5555--1111--  x2
A|-8888---3333---3333--1111--
D|-8888---3333---------1111--

Outro
End with this
e|---------------------
B|---------------------
G|---------------------
D|-88---88---88---888--
A|-88---88---88---888--
D|-88---88---88---888--

Order:
Intro
Verse
Chorus
Verse
Chorus
Bridge
Chorus x2


Important: The song above is NOT stored on the Chordie server. The original song is hosted at www.xguitar.com. Chordie works as a search engine and provides on-the-fly formatting. Chordie does not index songs against artists'/composers' will. To remove this song please click here.

This song is displayed as text-only. Transposing and tuning is only available for chordpro-songs.

Login - add to songbook

Rating click stars to rate

Layout
Accuracy

SHARE PAGE  




You need to log in to post comments