Guitar Tabs, Chords and Lyrics


Baby Come Home    American Hi Fi



American Hi-Fi - Baby Come Home
This songs easy and has a cool beat to it.

h-hammer
p-pull off
t-tug on pull
b-bend
\\-slide

Intro/Verse:
e|-----------------------------------------------|
b|----------------------6------------------------|
g|-8--8-6--8-6----8-6-8---8-6--------------------| x4 times. On 5th time fade off on (8)
d|-------------8----------------(8)--------------|
a|-----------------------------------------------|
E|-----------------------------------------------|



Chorus:
e|-----------------------------------------------|
b|-----------------------------------------------|
g|-----------------------------------------------|
d|-6666666\\8-666666\\3333-444444-333-444444-333-| x2 times
a|-----------------------------------------------|
E|-----------------------------------------------|



Intro/Verse

Chorus

Verse

Bridge

Chorus

Verse


Ending:
e|----------------------------------------------|
b|----------------------6-----------------------|
g|-8--8-6--8-6----8-6-8---8-6-(6)---------------|
d|-------------8--------------------------------| x2 times. On 3rd fade off on (6)
a|----------------------------------------------|
E|----------------------------------------------|


I didn't figure out the bridge but I will. If there are any questions or comments,


Important: The song above is NOT stored on the Chordie server. The original song is hosted at www.xguitar.com. Chordie works as a search engine and provides on-the-fly formatting. Chordie does not index songs against artists'/composers' will. To remove this song please click here.

This song is displayed as text-only. Transposing and tuning is only available for chordpro-songs.

Login - add to songbook

Rating click stars to rate

Layout
Accuracy

SHARE PAGE  




You need to log in to post comments