Guitar Tabs, Chords and Lyrics


Geeks Get the Girls    American Hi Fi



Intro (keyboards but can be imitated on guitar)

e----------------------------------------------------------
B--14-(x7)---12-(x7)---10(x12)-----------------------------
G----------------------------------------------------------
D----------------------------------------------------------
A----------------------------------------------------------
E----------------------------------------------------------

(Intro part 2... feedback)
e----------------------------------------------------------
B----------------------------------------------------------
G-------------44---77--------------------------------------
D---77---22---44---77--------------------------------------
A---77---22---22---55--------------------------------------
E---55---00------------------------------------------------


Verse (Palm Muted)
e----------------------------------------------------------
B----------------------------------------------------------
G-------------------------44444444---77777777--------------
D---77777777---22222222---44444444---77777777--------------
A---77777777-- 22222222---22222222---55555555--------------
E---55555555---00000000------------------------------------


Pre-Chorus
e----------------------------------------------------------
B----------------------------2-----------------------------
G-------------4--------------2---4444---777777-------------
D---77--------4--------------0---4444---777777-------------
A---77-- 22---2 (ring)-----------2222---555555-------------
E---55---00------------------------------------------------


Chorus
e----------------------------------------------------------
B----------------------------------------------------------
G-----------------4444---2222---------4--------------------
D---777777---22---4444---2222---222---4--------------------
A---777777---22---2222---0000---222---2--------------------
E---555555---00-----------------000------------------------


(Chorus cont)
e----------------------------------------------------------
B----------------------------------------------------------
G---222222--------4---22---44444---77---99-----------------
D---222222---22---4---22---44444---77---99-----------------
A---000000---22---2---00---22222---55---77-----------------
E------------00--------------------------------------------


(Guitar Fill after chorus)
e----------------------------------------------------------
B----------------------------------------------------------
G-------------------77-------------------------------------
D-------------------77-------------------------------------
A---002330---0------55-------------------------------------
E---------33---3-------------------------------------------


Return to verse (palm muted)

Bridge is same as Intro pt. 2)

Chorus repeated





Important: The song above is NOT stored on the Chordie server. The original song is hosted at www.xguitar.com. Chordie works as a search engine and provides on-the-fly formatting. Chordie does not index songs against artists'/composers' will. To remove this song please click here.

This song is displayed as text-only. Transposing and tuning is only available for chordpro-songs.

Login - add to songbook

Rating click stars to rate

Layout
Accuracy

SHARE PAGE  




You need to log in to post comments