Guitar Tabs, Chords and Lyrics


Paint a Picture    Anacrusis



Hope you like it enjoy!!

Riff A1
 /== play 3x ======\
B|--------------------||---------------------------|
G|--------------------||---------------------------|
D|*-4:---------------*||6:-------5---------5-------|
A|*-4:----8-------8--*||4:---5-6---6-5-----3-------|
E|------7-------7-----||---4-----------4-0-3-------|
B|----6-------6-------||---------------------------|
PM    . .     . .          . . .   . . . .

Play Riff A1  (one guitar only)

Riff A2
 /== play 3x =========\
B|--------------------||---------------------------|
G|--------------------||---------------------------|
D|*-4:----6----------*||6:-------5---------5-------|
A|*-4:--5------------*||4:---5-6---6-5-----3-------|
E|----4---------------||---4-----------4-0-3-------|
B|--------------------||---------------------------|
PM    . .             ||   . . .   . . . .         |
B|--------------------||---------------------------|
G|--------------------||---------------------------|
D|*-4:---------------*||6:-------5---------5-------|
A|*-4:----8----------*||4:---5-6---6-5-----3-------|
E|------7-------------||---4-----------4-0-3-------|
B|----6---------------||---------------------------|
PM    . .                  . . .   . . . .

Play Riff A2

Riff B
D|----------------|----------------|
A|7---8-7---------|--------9---9-10|
E|--6-----00000-0-|0-0-0-8---8-----|
B|----------------|----------------|
PM        ..... .  . . .

Play Riff B 12x (one guitar only first 2x)
Play Riff A1

Riff A3
 /== play 3x =========\
B|--------------------||---------------------------|
G|--------------------||---------------------------|
D|*-4:----6-------6--*||6:-------5---------5-------|
A|*-4:--5-------5----*||4:---5-6---6-5-----3-------|
E|----4-------4-------||---4-----------4-0-3-------|
B|--------------------||---------------------------|
PM    . .     . .     ||   . . .   . . . .         |
B|--------------------||---------------------------|
G|--------------------||---------------------------|
D|*-4:---------------*||6:-------5---------5-------|
A|*-4:----8-------8--*||4:---5-6---6-5-----3-------|
E|------7-------7-----||---4-----------4-0-3-------|
B|----6-------6-------||---------------------------|
PM    . .     . .          . . .   . . . .

Play Riff A3

Riff C
D|-----------------|-----------------|
A|-----------------|---------10109---|
E|0-7-0-8-0-10-0-12|0-10-0-0-8-8-8---|
B|-----------------|-----------------|
PM. . . . . .  . .  . .  . .

Play Riff C 8x
Play Riff B 8x
Play Riff A1
Play Riff A3
Play Riff C 8x
Play Riff A2

Then the last chord holds for a while, almost dies out, and

Riff D (clean)
D|------2---2---2-|------4---4---4-|------2---2---2-|------5---5---5-|
A|--2-3---3---3---|--2-3---3---3---|--2-3---3---3---|--2-3---3---3---|
E|0---------------|0---------------|0---------------|0---------------|
B|----------------|----------------|----------------|----------------|

With Riff D, the other guitar plays:

       hold chord...        staccato chords      hold..  pick slide
D|2------|-------|-------|------2|2------|-------|2------|-------|
A|2------|-------|-------|------3|2------|-------|2------|---\\\-|
E|0------|-------|-------|------0|0------|-------|0------|---\\\-|
B|-------|-------|-------|-------|-------|-------|-------|-------|

Then Play Riff D 4x

Riff E
 /=== play 3x ======================\
B|-----------------|----------------||----------------|----------------|
G|------9-------9--|----------------||-----9----------|----------------|
D|*-----9-------9--|------10----10-*||-----9--------10|----------------|
A|*-----7-------7--|------8-----8--*||-----7--------8-|-hold..---------|
E|-00007---00007---|0-0-0-8-----8---||00007---0-0-0-8-|----------------|
B|-----------------|----------------||----------------|----------------|
PM .....   .....    . . .             .....   . . .

Play Riff E
Play Riff D 2x
Play Riff E

Then a little guitar solo with bass backing for 8 bars, and

Riff F (halftime, with bass guitar chording)
B|-------------1716------1716------||-------------2019------2019------||
G|---15--1615------1615------1615--||---18--1918------1918------1918--||
D|*14--14----14--------14---------*||*17--17----17--------17---------*||
A|*-------------------------------*||*-------------------------------*||
E|---------------------------------||---------------------------------||
B|---------------------------------||---------------------------------||

Play Riff F, leaving off the last 6 notes
Play Riff E with solo
Play Riff F

Then play:
B|--------------------------------|------------------------/= 3 =\--|-
G|--------------------------------|------------------------9--------|-
D|--------------------------------|---------------/= 3 =\-----9-----|-
A|7----------hold..---------------|7--------------7--7--7--------10-|-
E|7-------------------------------|7--------------7--7--7-----------|-
B|5-------------------------------|5--------------5--5--5-----------|-
PM                                |               .  .  .           |
D|--------------------------------|---------------/= 3 =\--/= 3 =\--|-
A|7----------hold..---------------|7--------------7--7--7--7--7--7--|-
E|7-------------------------------|7--------------7--7--7--7--7--7--|-
B|5-------------------------------|5--------------5--5--5--5--5--5--|-
PM                                                .  .  .  .  .  .

D-|--------------------------------|---------------/= 3 =\--/= 3 =\--|
A-|7----------hold..---------------|7--------------7--7--7--7--7--7--|
E-|7-------------------------------|7--------------7--7--7--7--7--7--|
B-|5-------------------------------|5--------------5--5--5--5--5--5--|
PM                                 |               .  .  .  .  .  .  |
D-|--------------------------------|---------------/= 3 =\--/= 3 =\--|
A-|7----------hold..---------------|7--------------7--7--7--7--7--7--|
E-|7-------------------------------|7--------------7--7--7--7--7--7--|
B-|5-------------------------------|5--------------5--5--5--5--5--5--|


Important: The song above is NOT stored on the Chordie server. The original song is hosted at www.xguitar.com. Chordie works as a search engine and provides on-the-fly formatting. Chordie does not index songs against artists'/composers' will. To remove this song please click here.

This song is displayed as text-only. Transposing and tuning is only available for chordpro-songs.

Login - add to songbook

Rating click stars to rate

Layout
Accuracy

SHARE PAGE  




You need to log in to post comments