Guitar Tabs, Chords and Lyrics


Autobahn    Anberlin



Band - Anberlin
Song - Autobahn
Tabbed by - falloutrock04

Standard Tuning
Acoustic
*=palm mute
/=slide up

(I didn't tab out the strumming patterns, but they are pretty easy to figure out)

Intro
G----5-----------5------5-------------5---I
D----5-----------5------5-------------5---I
A----3-----------x------x-------------2---I      2x
E----------------3------5-----------------I


And we're drivin....
Verse
G----5-5------------------5-5-----------10------I
D----5-5--------3---------5-5-----------10------I
A----3-3--------3---------3-3-----------8-------I
E---------------1-------------------------------I
        ******** *********   ***********  *****
He does some open strumming in-between the muted chords too



And we're tryin....
Verse (cont.)
G---5---------------------5--------------------I
D---5----------3----------5-----------3--------I
A---3----------3----------3-----------3--------I
E--------------1----------------------1--------I


And the Stereo sings a song.....
Pre-Chorus
G---------------------------------------------I
D---7-----------3-----------7----------3------I
A---7-----------3-----------7----------3------I
E---5-----------1-----------5----------1------I


Drive to dream....
Chorus
G---5-------------------------------------------I
D---5----------3------------7----------3--------I
A---3----------3------------7----------3--------I
E--------------1------------5----------1--------I


And we're miles...
Verse
G---5-5-------------------5-5----------5/10-----------I
D---5-5--------3-3--------5-5----------5/10-----------I
A---3-3--------3-3--------3-3----------3/8------------I
E--------------1-1------------------------------------I
       *******     *******   *********     *********


Verse (cont.)  1x

Pre-Chorus    1x

Chorus    2x

Bridge
(Guitar 2 is doing some picking on the B and high E strings...not too sure about this chord either)
G-----5-----------------I
D-----5-----------------I
A-----2-----------------I
E-----------------------I


And we're drivin...
Verse
G--5-5--------------5-5-5-5-5-5-5-5-5-I
D--5-5--------------5-5-5-5-5-5-5-5-5-I
A--3-3--------------3-3-3-3-3-3-3-3-3-I
E-------------------------------------I
      **************


And the stereo sings a song...
Pre-Chorus
G-----------------------------------------------------------------
D---7-----------3-----------7----------3-3----3-3----3-3----3-3---
A---7-----------3-----------7----------3-3----3-3----3-3----3-3---
E---5-----------1-----------5----------1-1----1-1----1-1----1-1---

G-------------I
D----3----3---I
A----3----3---I
E----1----1---I



Chorus 2x


End on
E---------------------------3-----I
B--------------------------3------I
G----5--------------------0-------I
D----5-------------------2--------I
A----3------------------3---------I
E---------------------------------I
                       ^
                   Not sure if this is right
                   but it sounds close to a
                   Cadd9 chord




Important: The song above is NOT stored on the Chordie server. The original song is hosted at www.xguitar.com. Chordie works as a search engine and provides on-the-fly formatting. Chordie does not index songs against artists'/composers' will. To remove this song please click here.

This song is displayed as text-only. Transposing and tuning is only available for chordpro-songs.

Login - add to songbook

Rating click stars to rate

Layout
Accuracy

SHARE PAGE  




You need to log in to post comments