Guitar Tabs, Chords and Lyrics


Glass to the Arson    Anberlin



Tuning: Drop-D
* p.m.
                             INTRO
e/--------------------------------------------------------------------------\
b\--------------------------------------------------------------------------/
g/--------------------------------------------------------------------------\
d\--------------------------------------------------------------------------/
a/--5-5-5-5-5-5-5-5-6-6-6-6-6-6-6-6-7-7-7-7-7-7-7-7-5-5-5-5-5-5-5-5---------\
D\--------------------------------------------------------------------------/
    * * * * * * * * * * * * * * * * * * * * * * * * * * * * * * * *

This uses harmonics so i'll put an h under the harmonic notes

e/------------------------\
b\------------------------/
g/------------------------\
d\---4-4-4-4-7-7-7-7-0----/ x4
a/---4-4-4-4-7-7-7-7-0----\
D\---4-4-4-4-7-7-7-7-0----/
             h h h h

                                VERSE
e\-------------------------------------------------------------\
b/-------------------------------------------------------------/
g\---11-11-xx-11-11-xx-11-11-xx-11-11-xx-11-11-xx-11-11--------\
d/---x--x--xx-x--x--xx-x--x--xx-x--x--xx-x--x--xx-x--x----0-4-3/
a\---9--9--xx-9--9--xx-9--9--xx-9--9--xx-9--9--xx-9--9----0-4-3\
D/--------------------------------------------------------0-4-3/

                           PRECHORUS
e\-----------------------------------------------------------------------/
b/-----------------------------------------------------------------------\
g\-----------------------------------------------------------------------/
d/-----------------------------------------------------------------------\
a\-3333333333333333-5555555555555555-7777777777777777-9999999999999999---/
D/-3333333333333333-5555555555555555-7777777777777777-9999999999999999---\
   **************** **************** **************** ****************

                              CHORUS
e\--3-3-3333-5-5-5555-7-7-7777-9--9--8--/
b/--3-3-3333-5-5-5555-7-7-7777-9--9--8--\
g\--5-5-5555-7-7-7777-9-9-9999-11-11-10-/
d/--3-3-3333-5-5-5555-7-7-7777-9--9--8--\ x2
a\--3-3-3333-5-5-5555-7-7-7777-9--9--8--/
D/--3-3-3333-5-5-5555-7-7-7777-9--9--8--\

well theres a bridge which is 7-9-11-13 frets on the low D string, with a wha
effect. ya so you can figure out the rest i know its not 100% correct but its
close. Good luck if anyone needs any other songs tabbed just email me.


Important: The song above is NOT stored on the Chordie server. The original song is hosted at www.xguitar.com. Chordie works as a search engine and provides on-the-fly formatting. Chordie does not index songs against artists'/composers' will. To remove this song please click here.

This song is displayed as text-only. Transposing and tuning is only available for chordpro-songs.

Login - add to songbook

Rating click stars to rate

Layout
Accuracy

SHARE PAGE  




You need to log in to post comments