Guitar Tabs, Chords and Lyrics


Readyfuels   Anberlin

[------------------------------------------------------------------------------]


[------------------------------------------------------------------------------]


[------------------------------------------------------------------------------]

[------------------------------------------------------------------------------]

[-12-----------10----------12-----------10----------12-----------10------------]

[----12-10-12-----12-10-0-----12-10-12-----12-10-0-----12-10-12-----12-10-0----]

  [D]                         [A]     Chorus              [A#]
[--------------------------] [----------------------]
[--------------------------] [----------------------]
[--------------------------] [-7777777777777777-----]
[--------------------------] [----------------------]
[-12-----------10----------] [-5555555555555555--8\\-]
[-----12-10-12-----12-10-0-] [----------------------]

  [A#]                                   

Verse ::: (palm muted)
  [D]          [A#]          [A]          [C]                                                       
[-2-2-2-2---1-1-1-1---0-0-0-0---0-0-0-0--]
[-3-3-3-3---3-3-3-3---2-2-2-2---1-1-1-1--]
[-2-2-2-2---3-3-3-3---2-2-2-2---0-0-0-0--]
[-0-0-0-0---3-3-3-3---2-2-2-2---2-2-2-2--]< x4
[-x-x-x-x---1-1-1-1---0-0-0-0---3-3-3-3--]
[-x-x-x-x---x-x-x-x---x-x-x-x---x-x-x-x--]


or
  [D]              [A#]          [A]          [C]                                                   
[-x--x--x--x----x-x-x-x---x-x-x-x---x--x--x--x--]
[-x--x--x--x----x-x-x-x---x-x-x-x---x--x--x--x--]
[-x--x--x--x----x-x-x-x---x-x-x-x---x--x--x--x--]
[-12-12-12-12---8-8-8-8---7-7-7-7---10-10-10-10-]< x4
[-12-12-12-12---8-8-8-8---7-7-7-7---10-10-10-10-]
[-12-12-12-12---8-8-8-8---7-7-7-7---10-10-10-10-]


or
  [D]          [A#]          [A]          [C]                                                       
[-x-x-x-x---x-x-x-x---x-x-x-x---x-x-x-x-]
[-x-x-x-x---x-x-x-x---x-x-x-x---x-x-x-x-]
[-7-7-7-7---3-3-3-3---2-2-2-2---5-5-5-5-]
[-7-7-7-7---3-3-3-3---2-2-2-2---5-5-5-5-]< x4
[-5-5-5-5---1-1-1-1---0-0-0-0---3-3-3-3-]
[-x-x-x-x---x-x-x-x---x-x-x-x---x-x-x-x-]


Chorus Intro Main Chorus
[---------]            [-------------------------------------------------------]
[---------]<1x First   [-------------------------------------------------------]
[---------]   Chorus   [-3-3-3-3--5-5-5-5--7-7----------------3-3-3-3--5-5-5-5-]
[-00-00-0-]<2x Second  [-3-3-3-3--5-5-5-5--7-7-0-0--3-3-3-3---3-3-3-3--5-5-5-5-]
[-00-00-0-]   Chorus   [-1-1-1-1--3-3-3-3--5-5-0-0--3-3-3-3---1-1-1-1--3-3-3-3-]
[-00-00-0-]            [-----------------------0-0--3-3-3-3--------------------]
[------------------------------------------------------------------------]
[------------------------------------------------------------------------]
[-7-7----------------3-3-3-3--5-5-5-5--5-5-5-5---------------------------]
[-7-7-0-0--3-3-3-3---3-3-3-3--5-5-5-5--5-5-5-5--3-3-3-3---5---0-3-0-0-00-]
[-5-5-0-0--3-3-3-3---1-1-1-1--3-3-3-3--3-3-3-3--3-3-3-3---5---0-3-0-0-00-]
[-----0-0--3-3-3-3---------------------3-3-3-3--3-3-3-3---5---0-3-0-0-00-]


Second Intro ::: No intro solo here - go straight in and play
the solo with the chords, 2 times.
[------------------------------------------------------------------------------]
[------------------------------------------------------------------------------]
[------------------------------------------------------------------------------]
[------------------------------------------------------------------------------]
[-12-----------10----------12-----------10----------12-----------10------------]
[----12-10-12-----12-10-0-----12-10-12-----12-10-0-----12-10-12-----12-10-0----]

  [D]                         [A]         [A#] 
[--------------------------] [----------------------]
[--------------------------] [----------------------]
[--------------------------] [-7777777777777777-----]
[--------------------------] [----------------------]
[-12-----------10----------] [-5555555555555555--8\\-]
[-----12-10-12-----12-10-0-] [----------------------]


Verse :::
Chorus ::: (remember to play the intro twice)

Bridge :::
This is the part that starts with "Can you wait for me a little, a little longer...."
[-----------------]
[-----------------]
[-3-3-3-3--5-5--2-]
[-3-3-3-3--5-5--0-]
[-1-1-1-1--3-3--0-]
[----------3-3--0-]


Solo :::
The solo starts during the bridge right after the words "a little, a
little longer" are repeated.
[-------------------------------------------------------8~--8------------------]
[----------10~------8-----------------------------------------11-10----10------]
[-9b10b9-7-----9-10---10-9b10b9-9b10b9-7----7----9b10b9-------------12----12b--]
[----------------------------------------10------------------------------------]
[------------------------------------------------------------------------------]
[------------------------------------------------------------------------------]
[--------------------------8---------------------------------------------------]
[-10-----10-----10--------------10---10-10-8-6--10-10-8-6--10-8-6----10-10-8-6-]
[----12b----12b-----7-9-10---12------------------------------------------------]
[------------------------------------------------------------------------------]
[------------------------------------------------------------------------------]
[------------------------------------------------------------------------------]
[----------------------13p8-12p8-10p8--13p8-12p8-10p8--13p8-12p8-10p8--10b12p8-]
[--10-10-8-6--10-8-6-----------------------------------------------------------]
[------------------------------------------------------------------------------]
[------------------------------------------------------------------------------]
[----------------------\\I am very unsure of this part, help me out if possible/]
[------------------------------------------------------------------------------]

Third/Final Chorus Intro
[-----15-----15-----15-----15-----|--------------------]
[-18b----18b----18b----18b----18~-|-------5--6---------]
[---------------------------------|-3--5--4--5---------]
[---------------------------------|-3--5--2--3--3-2----]
[---------------------------------|-1--3------------3--]
[---------------------------------|--------------------]