Chordie logo


Alison Hell    Annihilator



ANNIHILATOR - ALISON HELL
(Alice In Hell, 1989)

Key
= after note = vibrato
^ after note = heavy vibrato
\ = slide down
/ = slide up
+ = tap
h = hammer
p = pull
n = natural harmonic
s = pinching harmonic (squeal)
* = tremolo pick
t = trill
b = bend
|-3-| = triplet

n number above the tab = play the first part then the first finishing part
			 play the first part a second time and then play the second finishing part
			 etc.

Riff 1

E -----------------------------------------------------------------
B -----------------------------------------------------------------
G -----------------------------------------------------------------
D -2-----2---------1-----1---------2-----2---------1-----1---------
A ---0-0-------------0-0-------------0-0-------------0-0-----------
E -----------------------------------------------------------------

Riff 1A

E --------------------------------------------------------------------------------------------
B --------------------------------------------------------------------------------------------
G --------------------------------------------------------------------------------------------
D -2-----2-----2-----2-----1-----1-----1-----1-----2-----2-----2-----2-----1-----1-----1------
A ---0-0---0-0---0-0---0-0---0-0---0-0---0-0---0-0---0-0---0-0---0-0---0-0---0-0---0-0--------
E --------------------------------------------------------------------------------------------

Riff 1B

E --------------------------------------------------------
B --------------------------------------------------------
G --------------8-------------------------8---------------
D -7------------8------------7------------8---------------
A -7------------6------------7------------6---------12\---
E -5-------------------------5----------------------------

Riff 1C

E -------------------------------------------------------------------------------------------------
B -------------------------------------------------------------------------------------------------
G -------------------------------------------------------------------------------------------------
D -------------------------------------------------------------------------------------------------
A -------7-----------7-----------6-----------6-----------7-----------7-----------6-----------6-----
E -5-7-8---8-7-5-7-8---8-7-5-7-8---8-7-5-7-8---8-7-5-7-8---8-7-5-7-8---8-7-5-7-8---8-7-5-7-8---8-7-

Riff 2

E -------------------------------------------------------------------------------------------------------
B -------------------------------------------------------------------------------------------------------
G --------9-------------9-------------8-------------8--------9-------------9-------------8-8-8-8-8-8-8---
D -7-9-10---10-9-7-9-10---10-9-7-9-10---10-9-7-9-10---7-9-10---10-9-7-9-10---10-9-7-9-10-----------------
A -------------------------------------------------------------------------------------------------------
E -------------------------------------------------------------------------------------------------------

Riff 2A

E ----------------------------------------------------------------------------------------------------------------------
B ----------------------------------------------------------------------------------------------------------------------
G ----------12----------------12----------------11----------------11----------------12----------------12----------------
D -10-12-13----13-12-10-12-13----13-12-10-12-13----13-12-10-12-13----13-12-10-12-13----13-12-10-12-13----13-12-10-12-13-
A ----------------------------------------------------------------------------------------------------------------------
E ----------------------------------------------------------------------------------------------------------------------

E ----------------14-14---
B ------------------------
G -11-11-11-11-11---------
D ------------------------
A ------------------------
E ------------------------

Riff 3

E ---------------------------------------------------------------------------------------------------
B ---------------------------------------------------------------------------------------------------
G --------9-------------9--------8-------------8------------7-----------7-----------6-6-6-6-6-6-s6---
D -7-9-10---10-9-7-9-10---10-9-7---10-9-7-9-10---10-9-5-7-8---8-7-5-7-8---8-7-5-7-8------------------
A ---------------------------------------------------------------------------------------------------
E ---------------------------------------------------------------------------------------------------

E -----------------------------------------------------------------------------------------------
B -----------------------------------------------------------------------------------------------
G --------9-------------9--------8-------------8------------7-----------7-----------6-6-6-6------
D -7-9-10---10-9-7-9-10---10-9-7---10-9-7-9-10---10-9-5-7-8---8-7-5-7-8---8-7-5-7-8-------6------
A ----------------------------------------------------------------------------------------4------
E -----------------------------------------------------------------------------------------------

Riff 4

E -----------------------------------------------------------------------------------------------------------------
B -----------------------------------------------------------------------------------------------------------------
G ---------------------------------------------------5--5----------------------------------------------------------
D ---------------------------------------------------5--5----------------------------------------------------6--6--
A -0-6-5-3--5-6--0-6-5-3--5-6--0-6-5-3--5-6--0-0-0-0-------0-6-5-3--5-6--0-6-5-3--5-6--0-6-5-3--5-6--0-0-0-0-6--6--
E -----------------------------------------------------------------------------------------------------------4--4--

Riff 4A

E -----------------------------------------------------------------------------------------------------------------
B -----------------------------------------------------------------------------------------------------------------
G ---------------------------------------------------5--5----------------------------------------------------------
D ---------------------------------------------------5--5--------------------------------5-3----3-5----------6--6--
A -0-6-5-3--5-6--0-6-5-3--5-6--0-6-5-3--5-6--0-0-0-0-------0-6-5-3--5-6--0-6-5-3--5-6--0-----6-------0-0-0-0-6--6--
E -----------------------------------------------------------------------------------------------------------4--4--

Fill 1

E ---------------------
B ---------------------
G ---------------------
D ---7----5----3--2----
A ----------------2----
E -5----3----1----0--0-

Riff 5

E ---------8-5-------------------------------------------------------------------
B -----6-------6---------10-8h10p8-------------------------------------5-8-5-----
G ---7---7-------7-----7-----------10-9-7---------9-9h10-9-----------6-------6---
D -0-----------------8-------------------------10----------10------7-----------7-
A -----------------8------------------------10----------------10-0---------------
E ----------------------------------------8--------------------------------------

E ---------8-5------------------------------------------------------------
B -----6-------6---------10-8h10p8------------------------2-2-2-2-2-2-2-2-
G ---7---7-------7-----7-----------10-9-7-----------------2-2-2-2-2-2-2-2-
D -0-----------------8----------------------------2-2-2-2-2-2-2-2-2-2-2-2-
A -----------------8----------------------0-0-0-0-0-0-0-0-0-0-0-0-0-0-0-0-
E ------------------------------------------------------------------------

Riff 6

E ---------------------------------------
B -5------------8-5-8-5-4----------------
G -5------------5---5---4----------------
D -5------------5---5---4----------------
A ---------------------------------------
E ---------------------------------------

Riff 7

E ---------------------------------------------------------------
B ---------------------------------------------------------------
G -5------------------------5-----4------------------------------
D -5------------------------5-----4------------------------------
A ----0-0-0-0-0-0-0-0-0-0-0---0-0----0-0-0-0-0-0-0-0-------------
E ---------------------------------------------------0-2-3-5-3-2-

Riff 7A

E ------------------------------------------------------------------------------------------------------------------------
B ------------------------------------------------------------------------------------------------------------------------
G -5------5----------------5-----4----------------------------------5----------------5-----4------------------------------
D -5------5----------------5-----4----------------------------------5----------------5-----4------------------------------
A ----0-0----0-0-0-0-0-0-0---0-0----0-0-0-0-0-0-0-0--------------------0-0-0-0-0-0-0---0-0----0-0-0-0-0-0-0-0-------------
E --------------------------------------------------0-2-3-5-3-2-----------------------------------------------0-2-3-5-3-2-

Riff 7B

E -------------------------------------------------------------------------------------------------
B -------------------------------------------------------------------------------------------------
G -5------------------------5-----4------------------------------5---------------------------5-----
D -5------------------------5-----4------------------------------5---------------------------5-----
A ----0-0-0-0-0-0-0-0-0-0-0---0-0----0-0-0-0-0-0-0-0----------------0-0-0-0-0-00-0-00-0-00-0---0-0-
E ---------------------------------------------------0-2-3-5-3-2-----------------------------------

E --------------------------------------
B --------------------------------------
G -4------------------------------------
D -4------------------------------5-----
A ----0-0-0-0-0-0-0-0-------------3-----
E --------------------0-2-3-5-3-2-3-----

Riff 8A

E ---------------------------------------------------------------------------------------------15-15--
B ---------------------------------------------------------------------------------------------17-17--
G -10-9----------------------------10-9-----------------------------10-9------------------------------
D -10-9-----7-6--------------------10-9-----7-6-------3-------3-----10-9-----7-6----------------------
A -8 -7-----7-6--------------------8 -7-----7-6-------3-------------8 -7-----7-6----------------------
E ------0-0-5-4-0-0-0-0-0-0-0-5\--------0-0-5-4-0-0-0-1-0-0-1---1-0------0-0-5-4-0-0-0-0-0-0-0--------

E ---------------------------------
B ---------------------------------
G -10-9---------------------9-10---
D -10-9-----7-6-------6-7---9-10---
A -8 -7-----7-6-------6-7---7-8 ---
E ------0-0-5-4-0-0-0-4-5-0--------

Riff 8

E --------------------------------------------------------------------------------------------15-15--
B --------------------------------------------------------------------------------------------17-17--
G -10-9----------------------------10-9----------------------------10-9------------------------------
D -10-9-----7-6--------------------10-9-----7-6-------3-----3--3---10-9-----7-6----------------------
A -8 -7-----7-6--------------------8 -7-----7-6-------3-----3--3---8 -7-----7-6----------------------
E ------0-0-5-4-0-0-0-0-0-0-0-5\--------0-0-5-4-0-0-0-1-0-0-1--1-0------0-0-5-4-0-0-0-0-0-0-0--------

E ---------------------------------
B ---------------------------------
G -10-9---------------------9-10---
D -10-9-----7-6-------6-7---9-10---
A -8 -7-----7-6-------6-7---7-8 ---
E ------0-0-5-4-0-0-0-4-5-0--------

Riff 9

E -------------------------------------------------
B -------------------------------------------------
G -7--10--9--6--7--10--9--6--7--10--9--6--7--------
D -7--10--9--6--7--10--9--6--7--10--9--6--7--------
A -5--8 --7--4--5--8 --7--4--5--8 --7--4--5--------
E -------------------------------------------------

Riff 9A

E -------------------------------------------------------------------------------------------------
B -------------------------------------------------------------------------------------------------
G -7--10--9--6--7--10--9--6--7--10--9--6--7--------7--10--9--6--7--10--9--6--7--10--9--6--7--------
D ----------------------------------------7--------7--10--9--6--7--10--9--6--7--10--9--6--7--------
A -5--8 --7--4--5--8 --7--4--5--8 --7--4--5--------5--8 --7--4--5--8 --7--4--5--8 --7--4--5--------
E -------------------------------------------------------------------------------------------------

E -------------------------------------------------
B -------------------------------------------------
G -7--10--9--6--7--10--9--6--7--10--9--6--7--------
D -------------------------------------------------
A -5--8 --7--4--5--8 --7--4--5--8 --7--4--5--------
E -------------------------------------------------

Fill 2

E --------------------------------------------------------------------------------------------
B --------------------------------------------------------------------------------------------
G -5---------------------------------5-7------5---------------------------------5-7-5---------
D ---8-7-8-7-5-7-5---5---------5-7-8------------8-7-8-7-5-7-5---5---------5-7-8-------8-7-5---
A -----------------8---8-7-7-8--------------------------------8---8-7-7-8-------------------8-
E --------------------------------------------------------------------------------------------

Fill 2A

E -----------------------------------------------------------------------------------------------
B -----------------------------------------------------------------------------------------------
G -5---------------------------------5-7------5--------------------------------7-9-10-9-7--------
D ---8-7-8-7-5-7-5---5---------5-7-8------------8-7-8-7-5-7-5---5-------7-8-10------------10-8-7-
A -----------------8---8-7-7-8--------------------------------8---8-7-8--------------------------
E -----------------------------------------------------------------------------------------------

Riff 10

E --------------------------------------------------------------------------------------
B -----------------------9\---------------------10\-------------------------------------
G -5---------------------9\---------------------10\-------------------------------------
D -2---------------------7\---------------------8 \---------------------5---5---5---5---
A -0---0-0-0-0-0-0-0-0-0------0-0-0-0-0-0-0-0-0-------0-0-0-0-0-0-0-0-0-2---2---3---3---
E --------------------------------------------------------------------------------------

Riff 11

E -------------------------------------------------------------------------------------------------------------------
B -------------------------------------------------------------------------------------------------------------------
G -11-11-11-11-11-11-11-11-11-11-11-11-11-11-11-11-11-11-11-11-11----------------------------------------------------
D -11-11-11-11-11-11-11-11-11-11-11-11-11-11-11-11-11-11-11-11-11-9\---------------------------------------------9---
A -9 -9 -9 -9 -9 -9 -9 -9 -9 -9 -9 -9 -9 -9 -9 -9 -9 -9 -9 -9 -9 -9\---------------------------------------------9---
E ----------------------------------------------------------------7\---2-2-2-2-2-2-2-2-2-2-2-2-2-2-2-2-2-2-2-2-2-7---

E ----------------------------------------------------------------------------------------------------------
B ----------------------------------------------------------------------------------------------------------
G -11-11-11-11-11-11-11-11-11-11-11-11-11-------------------------------------------------------------------
D -11-11-11-11-11-11-11-11-11-11-11-11-11-----------------9---------------------------------------------9---
A -9 -9 -9 -9 -9 -9 -9 -9 -9 -9 -9 -9 -9 -9-9-9-9-9-9-9-9-9---------------------------------------------9---
E --------------------------------------------------------7---2-2-2-2-2-2-2-2-2-2-2-2-2-2-2-2-2-2-2-2-2-7---

E ---------------------------------------------------------
B ---------------------------------------------------------
G ------------------------------------------------------7--
D -7------------------------4------------5--4--2--4--2--7--
A -7------------------------4------------5--4--2--4--2--5--
E -5------------------------2------------3--2--0--2--0-----

Order

Riff 1 x 1
Riff 1A x 1
Riff 1A/1B x 1
Riff 1C x 1
Riff 2/2A x 1
Riff 3 x 1
Riff 4 x 1
Riff 4/4A x 1
Fill 1 x 1
Riff 5 x 1
Riff 6 x 4
Riff 7 x 2
Riff 7A x 1
Riff 8A x 1
Riff 8 x 2
Riff 7 x 2
Riff 7A x 1
Riff 8 x 2
Riff 9 x 1
Riff 9A x 1
Fill 2/2A x 1
Solo over Riff 10 x 2
Solo over Riff 11 x 1
Riff 7 x 2
Riff 7A x 1
Riff 8 x 2
Riff 6 x 2
Riff 7B x 1



Important: The song above is NOT stored on the Chordie server. The original song is hosted at www.xguitar.com. Chordie works as a search engine and provides on-the-fly formatting. Chordie does not index songs against artists/composers will. To remove this song please click here.

This song is displayed as text-only. Transposing and tuning is only available for chordpro-songs.

Login - add to songbook

Rating click stars to rate

Layout
Accuracy

SHARE PAGE  




You need to log in to post comments