Guitar Tabs, Chords and Lyrics


Ultra-Motion    Annihilator



Band:  (Annihilator)
Album: (Waking the fury)
Song:  (Ultra Motion)

Copyright (c)  (2002)  Version 1.0 - (29. sept. 2004)

Transcribed By: (Pieter)
Email:          (Repyuk@hetnet.nl)

.  - palm mute           /  - slide up to
\  - slide down to       ~  - vibrato
h  - hammer on           b  - Bend
p  - pull off            Suffixes for bend
t  - tap                 f  - full bend    h - half bend
ph - pinched harmonic    q  - quarter bend t - tap bend
*  - see comment         ^  - Hold bend    r release bend
x  - Stuccatto           ~  - vibrato bend
,  - slight palm mute    () - ghost note, sustained note
"  - tremolo note         - Trill

Tunning D A D G B E

intro         fast up and down strokes
E|-------------------------------------------------------------------|
B|-------------------------------------------------------------------|
G|-------------------------------------------------------------------|
D|-------------------------------------------------------------------|
A|-------------------------------------------------------------------|
D|6-6-6-9-9-9-8-8-8-9-9-9---6-6-6-9-9-9-8-8-8-9-9-9------------------|

E|-------------------------------------------------------------------|
B|-------------------------------------------------------------------|
G|-------------------------------------------------------------------|
D|-------------------------------------------------------------------|
A|-------------------------------------------------------------------|
D|6-6-6-9-9-9-8-8-8-9-9-9-11-11-11-9-9-9-8-8-8-9-9-9--(play 2x)------|

E|-------------------------------------------------------------------|
B|-------------------------------------------------------------------|
G|-------------------------------------------------------------------|
D|-------------------------------------------------------------------|
A|2-2-3-3-2-2-3-3-2-2-3-3 etc etc------------------------------------|
D|-------------------------------------------------------------------|

E|-------------------------------------------------------------------|
B|-------------------------------------------------------------------|
G|-------------------------------------------------------------------|
D|-------------------------------------------------------------------|
A|6-9-8-9-6-9-8-9----------------------------------------------------|
D|6-9-8-9-6-9-8-9----------------------------------------------------|


E|-------------------------------------------------------------------|
B|-------------------------------------------------------------------|
G|-------------------------------------------------------------------|
D|-------------------------------------------------------------------|
A|6-9-8-9-11-9-8-9---------------------------------------------------|
D|6-9-8-9-11-9-8-9---(play 2x)---------------------------------------|

E|main riff----------------------------------------------------------|
B|-------------------------------------------------------------------|
G|-------------------------------------------------------------------|
D|-------------------------------------------------------------------|
A|-0---------0---------0-----0---------0-----0-4-3-------------------|
D|-0-0-0-0-0-0-0-0-0-0-0-0-0-0-0-0-0-0-0-0-0-0-4-3--continue---------|

E|chorus-------------------------------------------------------------|
B|-------------------------------------------------------------------|
G|-------------------------------------------------------------------|
D|-------------------------------------------------------------------|
A|0--3--5--6--5--3--5--3--0--3--0------------------------------------|
D|0--3--5--6--5--3--5--3--0--3--0------------------------------------|

E|-------------------------------------------------------------------|
B|-------------------------------------------------------------------|
G|-------------------------------------------------------------------|
D|-------------------------------------------------------------------|
A|0--3--5--6--5--3--1--1-----1--1------------------------------------|
D|0--3--5--6--5--3--1--1-1-1-1--1------------------------------------|

intro riff again

The rest of the song is based on these riffs


***Listen to the song for timing etc***

ENJOY


Important: The song above is NOT stored on the Chordie server. The original song is hosted at www.xguitar.com. Chordie works as a search engine and provides on-the-fly formatting. Chordie does not index songs against artists'/composers' will. To remove this song please click here.

This song is displayed as text-only. Transposing and tuning is only available for chordpro-songs.

Login - add to songbook

Rating click stars to rate

Layout
Accuracy

SHARE PAGE  




You need to log in to post comments