Guitar Tabs, Chords and Lyrics


Raise Hell    Anthrax



Tuning: Standard

Riff 1
e|----------------------------------|
B|----------------------------------|
G|----------------------------------|
D|-----9-----9-----10-9-7-9-----7-9-|
A|-----7-----7------8-7-5-7-----5-7-|
E|-0-0---0-0---0-0----------0-0-----|
   * *   * *   * *          * *
e|----------------------------------|
B|----------------------------------|
G|----------------------------------|
D|-----9-9-9-9-9-9-10-9-7-9-----7-9-|
A|-----7-7-7-7-7-7--8-7-5-7-----5-7-|
E|-0-0----------------------0-0-----|
   * *                      * *

Final time
e|-----------------------------------|
B|-----------------------------------|
G|-----------------------------------|
D|-----9-9-9-9-9-9-10-9-7-9-----12---|
A|-----7-7-7-7-7-7--8-7-5-7-----10-0-|
E|-0-0----------------------0-0------|
   * *                      * *


Riff 2 (verse)
e|-------------------------------------------------|
B|-------------------------------------------------|
G|-------------------------------------------------|
D|-5-----4-----5-----4-----5-----4-----------------|
A|-3-0-0-2---0-3-0-0-2---0-3-0-0-2------------5--4-|
E|------------------------------------0-2-3-0-3--2-|
     * *         * *         * *      * * * *


Riff 3 (chorus)
e|---------------------------------|
B|---------------------------------|
G|---------------------------------|
D|---------------------------------|
A|-2---------7---6-----------7---6-|
E|-0-0-0-0-0-5-0-4-0-0-0-0-0-5-0-4-|
     * * * *   *   * * * * *   *
e|------------------------------|
B|------------------------------|
G|------------------------------|
D|------------------------------|
A|---------7---6-------5--3-2---|
E|-0-0-0-0-5-0-4-0-0-0--------3-|
   * * * *   *   * * *


Riff 1a
Play this the first time:
e|----------------------------------|
B|----------------------------------|
G|----------------------------------|
D|-----9-----9-----10-9-7-9-----7-9-|
A|-----7-----7------8-7-5-7-----5-7-|
E|-0-0---0-0---0-0----------0-0-----|
   * *   * *   * *          * *
e|---------------------------------|
B|---------------------------------|
G|---------------------------------|
D|-----9-9-9-9-9-9-10-9-7-9-----12-|
A|-----7-7-7-7-7-7--8-7-5-7-----10-|
E|-0-0----------------------0-0----|
   * *                      * *

Play this the rest of the time:
e|------------------------------|
B|------------------------------|
G|------------------------------|
D|-9-----9-----10-9-7-9-----7-9-|
A|-7-----7------8-7-5-7-----5-7-|
E|---0-0---0-0----------0-0-----|
     * *   * *          * *
e|---------------------------------|
B|---------------------------------|
G|---------------------------------|
D|-----9-9-9-9-9-9-10-9-7-9-----12-|
A|-----7-7-7-7-7-7--8-7-5-7-----10-|
E|-0-0----------------------0-0----|
   * *                      * *

Final time
e|-----------------------------------|
B|-----------------------------------|
G|-----------------------------------|
D|-----9-9-9-9-9-9-10-9-7-9-----12---|
A|-----7-7-7-7-7-7--8-7-5-7-----10-0-|
E|-0-0----------------------0-0------|
   * *                      * *


Play Riff 2
Play Riff 3
Play Riff 1a


Riff 4
e|------------------------------------------------|
B|------------------------------------------------|
G|------------------------------------------------|
D|------------------------------------------------|
A|-2----------2-4-4----------4-5-7----------5-7-9-|
E|-0--0-0-0-0-0-2-3--3-3-3-3-2-3-5--5-5-5-5-3-5-7-|
      * * * *        * * * *        * * * *
e|---------------------------------------------------|
B|---------------------------------------------------|
G|---------------------------------------------------|
D|---------------------------------------------------|
A|---------7-9-10----------9-10-12-------------12-10-|
E|-7-7-7-7-5-7--8--8-8-8-8-7--8-10-10-10-10-10-10--8-|
   * * * *         * * * *          *  *  *  *


Riff 5 (Solo Rhythm)
e|---------------------------------|
B|---------------------------------|
G|---------------------------------|
D|-----9-----9-----10-9-9-7-9-10-7-|
A|-----7-----7------8-7-7-5-7--8-5-|
E|-0-0---0-0---0-0-----------------|
   * *   * *   * *
e|----------------------------------|
B|----------------------------------|
G|----------------------------------|
D|-----9-----9-----10-9-9-7-9-10-12-|
A|-----7-----7------8-7-7-5-7--8-10-|
E|-0-0---0-0---0-0------------------|
   * *   * *   * *


Riff 6
e|---------------------------------------------|
B|---------------------------------------------|
G|---------------------------------------------|
D|-4------4-7--4------4-7--4------4--9-9--7----|
A|-2----0-2-5--2----0-2-5--2----0-2--7-7--5--0-|
E|---------------------------------------------|

Last time
e|---------------------------------------------|
B|---------------------------------------------|
G|---------------------------------------------|
D|-4------4-7--4------4-7--4------4--9-9--7----|
A|-2----0-2-5--2----0-2-5--2----0-2--7-7--5----|
E|-------------------------------------------3-|


Play Riff 3    "Raise hell..."
Play Riff 1a

Final bar
e|-------------------------------------------------------|
B|-------------------------------------------------------|
G|-------------------------------------------------------|
D|-----9-9-9-9-9-9-10-9-7-9-----12--------9--9--9-9-9-9\-|
A|-----7-7-7-7-7-7--8-7-5-7-----10--------7--7--7-7-7-7\-|
E|-0-0----------------------0-0--------------------------|


Important: The song above is NOT stored on the Chordie server. The original song is hosted at www.xguitar.com. Chordie works as a search engine and provides on-the-fly formatting. Chordie does not index songs against artists'/composers' will. To remove this song please click here.

This song is displayed as text-only. Transposing and tuning is only available for chordpro-songs.

Login - add to songbook

Rating click stars to rate

Layout
Accuracy

SHARE PAGE  




You need to log in to post comments