Chordie logo


Death Rider    Anthrax



ANTHRAX - DEATHRIDER
(Fistful Of Metal, 1984)

Key
= after note = vibrato
^ after note = heavy vibrato 
\ = slide down
/ = slide up
+ = tap
h = hammer
p = pull
n = natural harmonic
s = pinching harmonic (squeal)
* = tremolo pick
t = trill
b = bend
|-3-| = triplet

n number above the tab = play the first part then the first finishing part
			 play the first part a second time and then play the second finishing part
			 etc.

Riff 1

E -----------------------------------------------------------
B -----------------------------------------------------------
G -2--------------9---7---10--2------------------------------
D -2--------------9---7---10--2--------------2-3-2-0-2-0-----
A -0--0-0-0-0-0-0-7---5---8 --0--0-0-0-0-0-0-------------3-2-
E -----------------------------------------------------------

Riff 2

E ------------------------------------------------------------------------------------------------------------------
B ------------------------------------------------------------------------------------------------------------------
G -5--------------5--------------5--------------5---8---7--5--------------5--------------5--------------5---8---11--
D -5--------------5--------------5--------------5---8---7--5--------------5--------------5--------------5---8---11--
A ----0-0-0-0-0-0----0-0-0-0-0-0----0-0-0-0-0-0-3---6---5-----0-0-0-0-0-0----0-0-0-0-0-0----0-0-0-0-0-0-3---6---9 --
E ------------------------------------------------------------------------------------------------------------------

Riff 3

E ---------------------------------------------------------------------------
B ---------------------------------------------------------------------------
G -7-----------------------------------7---------------------------12--------
D -7--------8--------10----------------7--------8--------10--------12--------
A -5--------8--------10----------------5--------8--------10--------10--------
E ----------6--------8 -------------------------6--------8 ------------------

E ---------------------------------------------------------------------------------
B ---------------------------------------------------------------------------------
G -7-----------------------------------7-------------------------------------------
D -7--------8--------10----------------7--------8------------------------10--------
A -5--------8--------10----------------5--------8------------------------10--------
E ----------6--------8 -------------------------6--------8-8-8-8-8-8-8-8-8 --------

Riff 4

E -------------------------------------------------------------------------------------------------------
B -------------------------------------------------------------------------------------------------------
G -4------------------------------2---4---5---6---7--8--4------------------------------7-----------------
D -4------------------------------2---4---5---6---7--8--4------------------------------7--------7--------
A -2--2-2-2-2-2-2-2-2-2-2-2-2-2-2-0---2---3---4---5--6--2--2-2-2-2-2-2-2-2-2-2-2-2-2-2-5--------7--------
E ----------------------------------------------------------------------------------------------5--------

Riff 5

E -------------------------------------------------------------------------------------------------------
B -------------------------------------------------------------------------------------------------------
G -2--------------------5---7--2--------------------5---7--2--------------------5---7--5--------3--------
D -2--------------------5---7--2--------------------5---7--2--------------------5---7--5--------3--------
A -0--0-0-0-0-0-0-5-3-0--------0--0-0-0-0-0-0-5-3-0--------0--0-0-0-0-0-0-5-3-0--------3--------1--------
E -------------------------------------------------------------------------------------------------------

Fill 1 

E --------------------------------------------------
B --------------------------------------------------
G -2------------------------------------------------
D -2------------------------------------------------
A -0----------------0-0-0-0-0-0-0-0-0-0-0-0-0-0-0-0-
E --------------------------------------------------

Order

Riff 1 x 8
Riff 2 x 2
Riff 3 x 1
Riff 1 x 4
Riff 2 x 2
Riff 3 x 1 
Riff 4 x 2
Solo over Riff 5 x 4
Solo over Fill 1 x 1
Riff 1 x 4
Riff 2 x 2
Riff 3 x 1
Solo over Riff 5 x 2
Riff 1 x 3
Riff 1A x 4

Tabbed by Radiohater 2004


Important: The song above is NOT stored on the Chordie server. The original song is hosted at www.xguitar.com. Chordie works as a search engine and provides on-the-fly formatting. Chordie does not index songs against artists/composers will. To remove this song please click here.

This song is displayed as text-only. Transposing and tuning is only available for chordpro-songs.

Login - add to songbook

Rating click stars to rate

Layout
Accuracy

SHARE PAGE  




You need to log in to post comments