Chordie logo


Belly of the Beast    Anthrax



ANTHRAX - BELLY OF THE BEAST
(Persistence Of Time, 1990)

^ after note = heavy vibrato 
\ = slide down
/ = slide up
+ = tap
h = hammer
p = pull
n = natural harmonic
s = pinching harmonic (squeal)
* = tremolo pick
t = trill
b = bend
|-3-| = triplet

n number above the tab = play the first part then the first finishing part
			 play the first part a second time and then play the second finishing part
			 etc.

Riff 1

E -------------------------------------------------------------------------------------------------
B -------------------------------------------------------------------------------------------------
G -------------------------------------------------------------------------------------------------
D -------------7---7---7---------------7---7---7---------------7---7---7---------------7---7---7---
A -0-0-0-0-0-0-0-0-0-0-0-0-0-0-0-0-0-0-0-0-0-0-0-0-0-0-0-0-0-0-0-0-0-0-0-0-0-0-0-0-0-0-0-0-0-0-0-0-
E -------------------------------------------------------------------------------------------------

E -------------------------------------------------------------------------------------------------
B -------------------------------------------------------------------------------------------------
G -------------------------------------------------------------------------------------------------
D -------------------------------------------------------------------------------------------------
A -------------------------------------------------------------------------------------------------
E -0-0-0-0-0-0-0-0-0-0-0-0-0-0-0-0-0-0-0-0-0-0-0-0-3-3-3-3-3-3-6-3-6-3-6-3-3-3-3-3-3-3-6-3-6-3-6-3-

E -------------------------------------------------
B -------------------------------------------------
G -------------------------------------------------
D -------------------------------------------------
A -------------------------------------------------
E -3-3-3-3-3-3-6-3-6-3-6-3-3-3-3-3-3-3-6-3-6-3-6-3-

Riff 2

E ---------------------------------------------------------------------------------
B ---------------------------------------------------------------------------------
G -----------------5-4-3-------------------------------------5-4-3-----------------
D -2-----7-6-5-----5-4-3-----5-4-3-----------2-----7-6-5-----5-4-3-----5-4-3-------
A -2-----7-6-5-----3-2-1-----5-4-3-----------2-----7-6-5-----3-2-1-----5-4-3-------
E -0---0-5-4-3---0---------0-3-2-1---0-0-1-3-0---0-5-4-3---0---------0-3-2-1-------

Riff 3

E -----------------------------------------------------------------------------------------------------
B -----------------------------------------------------------------------------------------------------
G -----------------------------------------------------------------------------------------------------
D -5---------------------------------------------------------------------------------------------------
A -5---4---5---4------4---5---4---------4---5---4------4---5---4---------4---5---4---------4---5---4---
E -3------------------------------3-3-3----------------------------0-0-0-------------0-0-0-------------

E -------------------------------------------------------------------------
B -------------------------------------------------------------------------
G -------------------------------------------------------------------------
D -------------------------------------------------------------------------
A -------4---5---4---------4---5---4---------4---5---4---------4---5---4---
E -3-3-3-------------3-3-3-------------0-0-0-------------0-0-0-------------

Riff 3A

E --------------------------------------------------------------------------------------------------
B --------------------------------------------------------------------------------------------------
G --------------------------------------------------------------------------------------------------
D -5------------------------------------------------------------------------------------------------
A -5------------------------------------------------------------------------------------------------
E -3------------------------------------------------0-0-0-0-0-0-0-0-0-0-0-0-0-0-0-0-0-0-0-0-0-0-0-0-

E -------------------------------------------------------------------------------------------------
B -------------------------------------------------------------------------------------------------
G -------------------------------------------------------------------------------------------------
D -------------------------------------------------------------------------------------------------
A -------------------------------------------------------------------------------------------------
E -3-3-3-3-3-3-3-3-3-3-3-3-3-3-3-3-3-3-3-3-3-3-3-3-0-0-0-0-0-0-0-0-0-0-0-0-0-0-0-0-0-0-0-0-0-0-0-0-

Riff 4

E -------------------------------------------------------------------------------------------------------------------
B -------------------------------------------------------------------------------------------------------------------
G -------------------------------------------------------------------------------------------------------------------
D -------------------------------------------------------------------------------------------------------------------
A -5------4------------------------------5------4------------------------------5------4------------------------------
E -6------5------0-0-0-0-0-0-0-0-0-0-0-0-6------5------0-0-0-0-0-0-0-0-0-0-0-0-6------5------0-0-0-0-0-0-0-0-0-0-0-0-

E ---------------
B ---------------
G ---------------
D ---------------
A -5------4------
E -6------5------

Riff 4A

E -------------------------------------------------------------------------------------------------------------------
B -------------------------------------------------------------------------------------------------------------------
G -------------------------------------------------------------------------------------------------------------------
D -8------7------------------------------8------7------------------------------8------7------------------------------
A -8------7------------------------------8------7------------------------------8------7------------------------------
E -6------5------0-0-0-0-0-0-0-0-0-0-0-0-6------5------0-0-0-0-0-0-0-0-0-0-0-0-6------5------0-0-0-0-0-0-0-0-0-0-0-0-

E ---------------
B ---------------
G ---------------
D -8------7------
A -8------7------
E -6------5------

Riff 5

E -------------------------------------------------
B -------------------------------------------------
G -------------------------------------------------
D -------------------------------------------------
A -------------------------------------------------
E -4-0-5-0-6-0-7-0-6-0-5-0-4-0-0-0-0-0-0-0-0-0-0-0-

Riff 5A

E -----------------------------------------------
B -----------------------------------------------
G -----------------------------------------------
D -----------------------------------------------
A -----------------------------------------------
E -4-0-0-5-0-0-6-0-0-7-0-0-6-0-0-5-0-0-4--/12----

Riff 6

E ----------------------------------------------------------------------------------------------------------
B ----------------------------------------------------------------------------------------------------------
G ----------------------------------------------------------------------------------------------------------
D ----------------------------------------------------------------------------------------------------------
A -4--5--6--7--6--5--4--5--6--7-----------------------------------------------------------------------------
E -4--5--6--7--6--5--4--5--6--7-/12---4--5--6--7--6--5--4--5--6--7-/12---4--5--6--7--6--5--4--5--6--7-/12---
   |--3--|  |--3--|  |--3--|	      |--3--|  |--3--|  |--3--|          |--3--|  |--3--|  |--3--|
E ----------------------------------
B ----------------------------------
G ----------------------------------
D ----------------------------------
A -4--5--6--7--6--5--4--5--6--5-----
E -4--5--6--7--6--5--4--5--6--5-3===
   |--3--|  |--3--|  |--3--|

Riff 7

E -----------------------------------------------
B -----------------------------------------------
G ------------------------------------------9-9\-
D ------------------------------------------9-9\-
A ------------------------------------------7-7\-
E -0--0--0-0--0-0--0--0-0--0-0--0--0-0--0-0------

Riff 8

E -----------------------------------------------------------------------------------------
B -----------------------------------------------------------------------------------------
G -----------------------------------------------------------------------------------------
D -8--------7----------------------------------8--------7----------------------------------
A -8--------7----------------------------------8--------7----------------------------------
E -6--------5--------0--0--0-0--0-0--0--0-0--0-6--------5--------0--0--0-0--0-0--0--0-0--0-

E ---------------------------------------------------------------
B ---------------------------------------------------------------
G ---------------------------------------------------------------
D -8--------7----------------------------------8--------7--------
A -8--------7----------------------------------8--------7--------
E -6--------5--------0--0--0-0--0-0--0--0-0--0-6--------5--------

Riff 9A

E ---------------------------------------------------------------------------------------------------------
B ---------------------------------------------------------------------------------------------------------
G ---------------------------------------------------------------------------------------------------------
D ---------------------------------------------------------------------------------------------------------
A ---------------------------------------------------------------------------------------------------------
E -0--0--0-0--0-0--0--0-0--0-0--0--0-0--0-0--0--0-0--0-0--0--0-0--0-0--0--0-0--0-0--0--0-0--0-0--0--0-0--0-

Riff 9B

E -------------------------------------------------------------------------------------
B -------------------------------------------------------------------------------------
G -------------------------------------------------------------------------------------
D -------------------------------------------------------------------------------------
A -------4----5----4----------4----5----4----------4----5----4----------4----5----4----
E -0--0-----------------0--0-----------------0--0-----------------0--0-----------------

Riff 9

E ---------------------------------------------------------------------------------------------------------
B ---------------------------------------------------------------------------------------------------------
G ---------------------------------------------------------------------------------------------------------
D ---------------------------------------------------------------------------------------------------------
A ---------------------------------------------------------------------------------------------------------
E -3--3--3-3--3-3--3--3-3--3-3--3--3-3--3-3--3--3-3--3-0--0--0-0--0-0--0--0-0--0-0--0--0-0--0-0--0--0-0--0-

Riff 9C

E -------------------------------------------------------------------------------------
B -------------------------------------------------------------------------------------
G -------------------------------------------------------------------------------------
D -------------------------------------------------------------------------------------
A -------4----5----4----------4----5----4----------4----5----4----------4----5----4----
E -3--3-----------------3--3-----------------0--0-----------------0--0-----------------

Riff 10

E ----------------------------------------------------------------------------------------------------
B ----------------------------------------------------------------------------------------------------
G ----------------------------------------------------------------------------------------------------
D -------------------------------------------------------------------------------------------------6\-
A -------------------------------------------------------------------------------------------------6\-
E -4-0-5-0-6-0-7-0-6-0-5-0-4-0-5-0-6-0-7-0-6-0-5-0-4-0-5-0-6-0-7-0-6-0-5-0-4-0-5-0-6-0-7-0-6-0-5-0-4\-

Order

Riff 1 x 3
Riff 2 x 2
Riff 3/3A x 1
Riff 4 x 1
Riff 1 x 3
Riff 2 x 2
Riff 3/3A x 1
Riff 4 x 1
Riff 5 x 4
Solo over Riff 5 x 8
Riff 5A x 2
Riff 6 x 1
Riff 7 x 4
Riff 8 x 1
Riff 9A/9B x 1
Riff 9/9C x 3
Riff 8 x 1
Riff 10 x 1

Tabbed by Radiohater 2003


Important: The song above is NOT stored on the Chordie server. The original song is hosted at www.xguitar.com. Chordie works as a search engine and provides on-the-fly formatting. Chordie does not index songs against artists/composers will. To remove this song please click here.

This song is displayed as text-only. Transposing and tuning is only available for chordpro-songs.

Login - add to songbook

Rating click stars to rate

Layout
Accuracy

SHARE PAGE  




You need to log in to post comments