Guitar Tabs, Chords and Lyrics


One Man Stands    Anthrax



ANTHRAX - ONE MAN STANDS
(Persistence of Time, 1990)

Key
= after note = vibrato
^ after note = heavy vibrato
\ = slide down
/ = slide up
+ = tap
h = hammer
p = pull
n = natural harmonic
s = pinching harmonic (squeal)
* = tremolo pick
t = trill
b = bend
|-3-| = triplet

n number above the tab = play the first part then the first finishing part
			 play the first part a second time and then play the second finishing part
			 etc.

Riff 1

E ----------------------------------------
B ----------------------------------------
G ----------------------------------------
D ----------------------------------------
A ---2-------------------2----------------
E -0---0---------------0---2--------------

Riff 1A

E ----------------------------------------
B ----------------------------------------
G ---4------------------------------------
D ---4-2----------------------------------
A ---2-2-----------------2-0--------------
E -0---0---------------0------------------

Riff 1B

E ----------------------------------------
B ----------------------------------------
G ---4------------------------------------
D ---4-2---------------2-1-0--------------
A ---2-2----------------------------------
E -0---0----------------------------------

Riff 1C

E -----------------------------------------------------------------------------------------
B -----------------------------------------------------------------------------------------
G -----------------------------------------------------------------------------------------
D -2----------2----------2----------2----------4----------4----------4----------4----------
A -2----------2----------2----------2----------4----------4----------4----------4----------
E -0-00-00-00-0-00-00-00-0-00-00-00-0-00-00-00-2-22-22-22-2-22-22-22-2-22-22-22-2-22-22-22-

Riff 2

E --------------------------------------------------------
B --------------------------------------------------------
G -9--9--8--8---------------------------------------------
D -9--9--8--8--7-7-5-2--2-2-2-------------------------0---
A -7--7--6--6--7-7-5-2--2-2-2-1--1--2---2---1---1-1-------
E -7--7--6--6--5-5-3-0--0-0-0-2--2----2---2---2-----3-----

Riff 2A

E ---------------------------
B ---------------------------
G -9--9--8--8----------------
D -9--9--8--8--7-7-5-2--2--2-
A -7--7--6--6--7-7-5-2--2--2-
E -7--7--6--6--5-5-3-0--0--0-

Riff 3

E ---------------------------------
B ---------------------------------
G -----3---4---5-6-----6---7---8-9-
D -----3---4---5-6-----6---7---8-9-
A -----1---2---3-4-----4---5---6-7-
E -0-0---0---0-----0-0---0---0-----

Riff 4

E -----------------------------------------------------------------
B -----------------------------------------------------------------
G -----------------------------------------------------------------
D ---4-5-2-2-2-2-2---4-5-2-2-2-2-2---4-5-4-4-4-4-4-4-4-4-4-4-4-4-4-
A ---4-5-2-2-2-2-2---4-5-2-2-2-2-2---4-5-4-4-4-4-4-4-4-4-4-4-4-4-4-
E -0-2-3-0-0-0-0-0-0-2-3-0-0-0-0-0-0-2-3-2-2-2-2-2-2-2-2-2-2-2-2-2-

Riff 4A

E -----------------------------------------------------------------
B -----------------------------------------------------------------
G -----------------------------------------------------------------
D ---4-5-2-2-2-2-2---4-5-2-2-2-2-2---4-5-4-4-4-4-4-4-4-------------
A ---4-5-2-2-2-2-2---4-5-2-2-2-2-2---4-5-4-4-4-4-4-4-4---5---5---5-
E -0-2-3-0-0-0-0-0-0-2-3-0-0-0-0-0-0-2-3-2-2-2-2-2-2-2-2---2---2---

Riff 5
(play first part 4 times)	    1, 3			      2
E --------------------------------- --------------------------------- ---------------------------------
B --------------------------------- --------------------------------- ---------------------------------
G -4-------------------------4----- --------------------------------- -----------3-------3-------3-----
D -4---------------5---------4----- -2-2-2-2-2-2-2-2-2-2-2-2-2-2-2-2- -----------3-------3-------3-----
A -2-2-2-2-2-5-2-0-5---------2----- -2-2-2-2-2-2-2-2-2-2-2-2-2-2-2-2- -----------1-------1-------1-----
E -----------------3-3-3-3-3---3-2- -0-0-0-0-0-0-0-0-0-0-0-0-0-0-0-0- -0-0-0-0-0---0-0-0---0-0-0---0-0-

Riff 6

E -----------------------------------------------------------------
B -----------------------------------------------------------------
G -9-------9-------9-------9---------------------------------------
D -9-------9-------9-------9---8-9-4-------4-------4-------4-------
A -7-------7-------7-------7---8-9-4-------4-------4-------4-------
E ---0-0-0---0-0-0---0-0-0---0-6-7-2-2-2-2-2-2-2-2-2-2-2-2-2-2-2-2-

Riff 6A

E -----------------------------------------------------------------
B -----------------------------------------------------------------
G -9-------9-------9-------9---------------------------------------
D -9-------9-------9-------9---8-9-4-------------------------------
A -7-------7-------7-------7---8-9-4-------5-------5-------5-------
E ---0-0-0---0-0-0---0-0-0---0-6-7-2-2-2-2-2-2-2-2-2-2-2-2-2-2-2-2-

Riff 7

E -------------------
B -------------------
G -------------------
D ---2---------------
A -1-2---------------
E ---0---------------

Order

Riff 1 x 2
Riff 1/1A x 2
Riff 1/1B x 4
Solo over Riff 1C x 2
Riff 2A x 4
Riff 3 x 4
Riff 2 x 4
Riff 3 x 4
Riff 4 x 2
Riff 5 as directed
Riff 3 x 4
Riff 2 x 4
Riff 3 x 4
Riff 4 x 2
Riff 5 as directed
Riff 3 x 4
Riff 6 x 2
Solo over Riff 6 x 2
Solo over Riff 4A x 4
Solo over Riff 2A x 4
Riff 6A x 4
Riff 5 as directed
Riff 7 x 8



Important: The song above is NOT stored on the Chordie server. The original song is hosted at www.xguitar.com. Chordie works as a search engine and provides on-the-fly formatting. Chordie does not index songs against artists/composers will. To remove this song please click here.

This song is displayed as text-only. Transposing and tuning is only available for chordpro-songs.

Login - add to songbook

Rating click stars to rate

Layout
Accuracy

SHARE PAGE  




You need to log in to post comments