Guitar Tabs, Chords and Lyrics


Packaged Rebellion    Anthrax



Anthrax - Packaged Rebellion
Submitted By: Inbredjed
EMail: s_johan73@hotmail.com

Tuning: Half Step Down (Eb Ab Db Gb Bb Eb)

there is a harmony line to the intro that i have not included, but other than
that and the solo, everything is here

pm = palm mute
x = muted note
()= artificial harmonic
h = hammer on
p = pull off
/ = slide
b = bend

tabbed by: Inbredjed



clean guitar

Eb|---------------------------------------------------------------------------||
Bb|---------------------------------------------------------------------------||
Gb|------8--------------7---------------8----------------9---------------------||
Db|----8---8----------7---7-----------8---8------------9---9----------------------||
Ab|--7-------7------8-------8-------9-------9-------10-------10--------------------||
Eb|9-----------9-10-----------10-11-----------11-12-------------12--------------------||

play the picking progression 4 times and end on this note on the 4th time

Eb|--x---||
Bb|--x---||
Gb|--9---||
Db|--9---||
Ab|--10--||
Eb|--12--||

play this progression 4 times with distortion as the bass guitars build up in the back ground

Eb|-----------------------------------||
Bb|-----------------------------------||
Gb|-----------------------------------||
Db|-----------------------------------||
Ab|-----------------------------------||
Eb|4(let ring)-5----------6----------7||

the end note of the 4th loop fades into this riff

Eb|----------------------------------------------||
Bb|----------------------------------------------||
Gb|----------------------------------------------||
Db|----------------------------------5-----------||
Ab|--5-7-5---5-7-5---5-7-5---2-4-2---5-----------||
Eb|7-------6-------5-------4-------0-3-(let ring)||

pm this

Eb|-------------------------------||
Bb|-------------------------------||
Gb|4-4-4-4-4-4-4-4-4-4-4-4-4-4-4-4||
Db|4-4-4-4-4-4-4-4-4-4-4-4-4-4-4-4||
Ab|2-2-2-2-2-2-2-2-2-2-2-2-2-2-2-2||
Eb|-------------------------------||



Eb|------------------------------------------------------||
Bb|------------------------------------------------------||
Gb|4-2-4--4-2-4--4-2-4--4-2-4--4-2-4--4-2-4--4-2-4--4-2-4||
Db|4-2-4--4-2-4--4-2-4--4-2-4--4-2-4--4-2-4--4-2-4--4-2-4||
Ab|2-0-2--2-0-2--2-0-2--2-0-2--2-0-2--2-0-2--2-0-2--2-0-2||
Eb|------------------------------------------------------||
   "In and out try to be, what you see, anarchy, everything, everyone,
     every man, rebellion"

play this 4 times

Eb|------------||
Bb|------------||
Gb|4-2-4--4-4-7||
Db|4-2-4--4-4-7||
Ab|2-0-2--2-2-5||
Eb|------------||
   "When you can't make a move"....

pm this

Eb|-------------------------------||
Bb|-------------------------------||
Gb|-------------------------------||
Db|2-2-2-2-2-2-2-2-2-2-2-2-2-2-2-2||
Ab|2-2-2-2-2-2-2-2-2-2-2-2-2-2-2-2||
Eb|0-0-0-0-0-0-0-0-0-0-0-0-0-0-0-0||

play this riff 4 times and pm bottom string only

Eb|-------------------------------------------------------||
Bb|-------------------------------------------------------||
Gb|-------------------------------------------------------||
Db|------------------------2-2-2-2-2-2-2-2-2-2-2-2-2-2-2-2||
Ab|----0-----0-----0-----0-2-2-2-2-2-2-2-2-2-2-2-2-2-2-2-2||
Eb|7-7---5-5---3-3---2-2---0-0-0-0-0-0-0-0-0-0-0-0-0-0-0-0||
  "I dont wanna hear how you're so driven"...

play this riff once

Eb|---------------------------------------------------------------||
Bb|---------------------------------------------------------------||
Gb|---------------------------------------------------------------||
Db|99999999-77777777-55555555-4----2-2-2-2-2-2-2-2-2-2-2-2-2-2-2-2||
Ab|99999999-77777777-55555555-4----2-2-2-2-2-2-2-2-2-2-2-2-2-2-2-2||
Eb|77777777-55555555-33333333-2-pm-0-0-0-0-0-0-0-0-0-0-0-0-0-0-0-0||
   "It doesn't show what im trying to be, it just shows who i am"



play 3 times

Eb|-----------------------------------||
Bb|-----------------------------------||
Gb|-----------------------------------||
Db|-----------------------------------||
Ab|--5-7-5---5-7-5---5-7-5---5-7-7b8-5||
Eb|7-------6-------5-------4----------||
   "Gone, take your packaged rebellion"...


Eb|-----------------------------------------------------------------||
Bb|-----------------------------------------------------------------||
Gb|-----------------------------------------------------------------||
Db|----------------------------------5-5-5-5-5-5-5-5-5-5-5-5-5-5-5-5||
Ab|--5-7-5---5-7-5---5-7-5---2-4-2---5-5-5-5-5-5-5-5-5-5-5-5-5-5-5-5||
Eb|7-------6-------5-------4-------0-3-3-3-3-3-3-3-3-3-3-3-3-3-3-3-3||

pm this

Eb|-----------------------||
Bb|-----------------------||
Gb|4-4-4-4-4-4-4-4-4-4-4-4||
Db|4-4-4-4-4-4-4-4-4-4-4-4||
Ab|2-2-2-2-2-2-2-2-2-2-2-2||
Eb|-----------------------||



triple pick these two riffs

Eb|-------------------------------||
Bb|-------------------------------||
Gb|-------------------------------||
Db|5-5-5-5-5-5-5-5-5-5-5-5-5-5-5-5||
Ab|5-5-5-5-5-5-5-5-5-5-5-5-5-5-5-5||
Eb|3-3-3-3-3-3-3-3-3-3-3-3-3-3-3-3||

play the next 2 riffs 3 times

Eb|-------------------------------||
Bb|-------------------------------||
Gb|-------------------------------||
Db|9-9-9-9-9-9-9-9-9-9-9-9-9-9-9-9||
Ab|9-9-9-9-9-9-9-9-9-9-9-9-9-9-9-9||
Eb|7-7-7-7-7-7-7-7-7-7-7-7-7-7-7-7||
  "i saw your act it came and went"...

Eb|------------------------------------------------------||
Bb|------------------------------------------------------||
Gb|4-2-4--4-2-4--4-2-4--4-2-4--4-2-4--4-2-4--4-2-4--4-2-4||
Db|4-2-4--4-2-4--4-2-4--4-2-4--4-2-4--4-2-4--4-2-4--4-2-4||
Ab|2-0-2--2-0-2--2-0-2--2-0-2--2-0-2--2-0-2--2-0-2--2-0-2||
Eb|------------------------------------------------------||




this riff is played for the duration of the solo

Eb|------------||
Bb|------------||
Gb|4-2-4--4-4-7||
Db|4-2-4--4-4-7||
Ab|2-0-2--2-2-5||
Eb|------------||



play this riff 4 times


Eb|-------------------------------------------------||
Bb|-------------------------------------------------||
Gb|--4-/-6-/-4---4-/-6-/-4---4-/-6-/-4-----4-/-6-/-4||
Db|-------------------------------------2-----------||
Ab|--2-/-4-/-2---2-/-4-/-2---2-/-4-/-2--2--2-/-4-/-2||
Eb|4-----------3-----------2------------0-----------||



note that the low note is played twice as opposed to once in the chorus riff

Eb|-------------------------------------------||
Bb|-------------------------------------------||
Gb|-------------------------------------------||
Db|-------------------------------------------||
Ab|----5-7-5-----5-7-5-----5-7-5-----5-7-7b8-5||


Important: The song above is NOT stored on the Chordie server. The original song is hosted at www.xguitar.com. Chordie works as a search engine and provides on-the-fly formatting. Chordie does not index songs against artists'/composers' will. To remove this song please click here.

This song is displayed as text-only. Transposing and tuning is only available for chordpro-songs.

Login - add to songbook

Rating click stars to rate

Layout
Accuracy

SHARE PAGE  




You need to log in to post comments