Guitar Tabs, Chords and Lyrics


Alpha Male    Anthrax



Alpha Male


anthrax


TRANSCRIBED BY RUDY GUZMAN


guzman_84@hotmail.com


eb:--------------|
Bb:--------------|
Gb:--------------|
Db:--------------|
Ab:-3-5-7-10-7-0-|
 D:-3-5-7-10-7-0-|

   *1st fret*
eb:-----------------------------------------------------|
Bb:-----------------------------------------------------|
Gb:-----------------------------------------------------|
Db:-x-x-x-x-x-x-x-x-x-x-x-x-x-x-x-x-x-x-x-x-x-x-x-x-x-x-|
Ab:-x-x-x-x-x-x-x-x-x-x-x-x-x-x-x-x-x-x-x-x-x-x-x-x-x-x-|
 D:-x-x-x-x-x-x-x-x-x-x-x-x-x-x-x-x-x-x-x-x-x-x-x-x-x-x-|

  you should be happy...
eb:--------------------------------------------------|
Bb:--------------------------------------------------|
Gb:--------------------------------------------------|
Db:--------------------------------------------------|
Ab:-0-0-0-0-------0-0-0-0------0-0-0-0------0-0-0-0--|
 D:-0-0-0-0-------0-0-0-0------0-0-0-0------0-0-0-0--|

                                                                          ------
eb:----------------------------------------------------------------------/------|
Bb:---------------------------------------------------------------------/-------|
Gb:--------------------------------------------------------------------/--------|
Db:-------------------------------------------------------------------/---------|
Ab:-0-0-0-0-------0-0-0-0------0-0-0-0------0-0-0-0-0-0-0-0-0-0------/----------|
 D:-0-0-0-0-------0-0-0-0------0-0-0-0------0-0-0-0-0-0-0-0-0-0--2bf/-2-2-2-2-2-|


eb:---------------------------------------|
Bb:---------------------------------------|
Gb:---------------------------------------|
Db:---------------------------------------|
Ab:-0-0-0-0-0--12-10--0-0-0-0-12-12-12-10-|
 D:-0-0-0-0-0--12-10--0-0-0-0-12-12-12-10-|

eb:----------------------------------------------------|
Bb:----------------------------------------------------|
Gb:----------------------------------------------------|
Db:----------------------------------------------------|
Ab:-0-0-0-0-0-0-0-0-0-0-0-0-0-0-0--0-3nh-0-3nh-0-3nh-0-|
 D:-0-0-0-0-0-0-0-0-0-0-0-0-0-0-0--0-3nh-0-3nh-0-3nh-0-|

eb:------------|
Bb:------------|
Gb:------------|
Db:------------| x 4
Ab:-3-5-7-10-7-|
 D:-3-5-7-10-7-|

eb:-----|
Bb:-----|
Gb:-----|
Db:-----|
Ab:-0-0-|
 D:-0-0-|

   *1st fret*
eb:-----------------------------------------------------|
Bb:-----------------------------------------------------|
Gb:-----------------------------------------------------|
Db:-x-x-x-x-x-x-x-x-x-x-x-x-x-x-x-x-x-x-x-x-x-x-x-x-x-x-|
Ab:-x-x-x-x-x-x-x-x-x-x-x-x-x-x-x-x-x-x-x-x-x-x-x-x-x-x-|
 D:-x-x-x-x-x-x-x-x-x-x-x-x-x-x-x-x-x-x-x-x-x-x-x-x-x-x-|

  you should be happy...
eb:--------------------------------------------------|
Bb:--------------------------------------------------|
Gb:--------------------------------------------------|
Db:--------------------------------------------------|
Ab:-0-0-0-0-------0-0-0-0------0-0-0-0------0-0-0-0--|
 D:-0-0-0-0-------0-0-0-0------0-0-0-0------0-0-0-0--|

                                                                          ------
eb:----------------------------------------------------------------------/------|
Bb:---------------------------------------------------------------------/-------|
Gb:--------------------------------------------------------------------/--------|
Db:-------------------------------------------------------------------/---------|
Ab:-0-0-0-0-------0-0-0-0------0-0-0-0------0-0-0-0-0-0-0-0-0-0------/----------|
 D:-0-0-0-0-------0-0-0-0------0-0-0-0------0-0-0-0-0-0-0-0-0-0--2bf/-2-2-2-2-2-|


eb:---------------------------------------|
Bb:---------------------------------------|
Gb:---------------------------------------|
Db:---------------------------------------|
Ab:-0-0-0-0-0--12-10--0-0-0-0-12-12-12-10-|
 D:-0-0-0-0-0--12-10--0-0-0-0-12-12-12-10-|

eb:----------------------------------------------------|
Bb:----------------------------------------------------|
Gb:----------------------------------------------------|
Db:----------------------------------------------------|
Ab:-0-0-0-0-0-0-0-0-0-0-0-0-0-0-0--0-3nh-0-3nh-0-3nh-0-|
 D:-0-0-0-0-0-0-0-0-0-0-0-0-0-0-0--0-3nh-0-3nh-0-3nh-0-|

eb:------------|
Bb:------------|
Gb:------------|
Db:------------| x 4
Ab:-3-5-7-10-7-|
 D:-3-5-7-10-7-|

eb:-----|
Bb:-----|
Gb:-----|
Db:-----|
Ab:-0-0-|
 D:-0-0-|

eb:-------------------------------------------------------|
Bb:-------------------------------------------------------|
Gb:-------------------------------------------------------|
Db:-x-x-x-x-x-x-x-x-x-x---------x-x-x-x-x-x-x-x-x---------|
Ab:-x-x-x-x-x-x-x-x-x-x-0-0-0-0-x-x-x-x-x-x-x-x-x-0-0-0-0-|
 D:-x-x-x-x-x-x-x-x-x-x-0-0-0-0-x-x-x-x-x-x-x-x-x-0-0-0-0-|

eb:------------|
Bb:------------|
Gb:------------|
Db:------------| x 4
Ab:-3-5-7-10-7-|
 D:-3-5-7-10-7-|


eb:-----------------------------------------------|
Bb:-----------------------------------------------|
Gb:-----------------------------------------------|
Db:-----------------------------------------------|
Ab:-0-0-0-0-0-0-0-0-0-0-0-0-0-0-0-0-0-0-0-0-0-0-0-|
 D:-0-0-0-0-0-0-0-0-0-0-0-0-0-0-0-0-0-0-0-0-0-0-0-|


          --------------------------------------
eb:------/---------------------------------------|
Bb:-----/----------------------------------------|
Gb:-7bf/-7-7-7-7-7-7-7-7-7-7-7-7-7-7-7-7-7-7-7-7-|
Db:----------------------------------------------|
Ab:----------------------------------------------|
 D:----------------------------------------------|


:----------------------------------------|
:----------------------------------------|
:----------------------------------------|
:----------------------------------------|
:----------------------------------------|
:-7~-7~-7-6-5--7~-7~-7-6-5--7~-7~-7-6-5--|


gt1
:------------------------------------------|
:------------------------------------------|
:------------------------------------------|
:------------------------------------------|
:----------------------------------------0-|
:-7~-7~-7-6-5--7~-7~-7-6-5--7~-7~-7-6-5--0-|
gt2
:------------------------------------------------------------------------------------------|
:------------------------------------------------------------------------------------------|
:5-5-5-5-5-5-5-5-5-5--2-2-2-2-2-2-2-2-2-2--5-5-5-5-5-5-5-5-5--9-9-9-9-9-9-9-9-9-9--11-(11b)|
:------------------------------------------------------------------------------------------|
:------------------------------------------------------------------------------------------|
:------------------------------------------------------------------------------------------|

   wah
eb:-----------------------------|
Bb:-----------------------15ah--|
Gb:-14-14-14p12--14-14-14-------| x 4
Db:-----------------------------|
Ab:-----------------------------|
 D:-----------------------------|


eb:-----------------------------------------------------22b-|
Bb:---------------------------------------------------------|
Gb:-14p12-14p12--16p14-16p14--17p15--19p17--21p19-21p19-----|
Db:---------------------------------------------------------|
Ab:---------------------------------------------------------|
 D:---------------------------------------------------------|

eb:---------------------------------------|
Bb:---------------------------------------|
Gb:---------------------------------------|
Db:---------------------------------------|
Ab:-0-0-0-0-0--12-10--0-0-0-0-12-12-12-10-|
 D:-0-0-0-0-0--12-10--0-0-0-0-12-12-12-10-|


eb:---------------------------------------|
Bb:---------------------------------------|
Gb:---------------------------------------|
Db:---------------------------------------|
Ab:-0-0-0-0-0--12-10--0-0-0-0-x-x-x-x-x-x-|
 D:-0-0-0-0-0--12-10--0-0-0-0-x-x-x-x-x-x-|


eb:------------|
Bb:------------|
Gb:------------|
Db:------------| x 8
Ab:-3-5-7-10-7-|
 D:-3-5-7-10-7-|


eb:-----------------------------------------|
Bb:-----------------------------------------|
Gb:-----------------------------------------|
Db:-----------------------------------------|
Ab:-0-0----0-0----0-0----0-0----0-0---0-0---|
 D:-0-0----0-0----0-0----0-0----0-0---0-0---|


Important: The song above is NOT stored on the Chordie server. The original song is hosted at www.xguitar.com. Chordie works as a search engine and provides on-the-fly formatting. Chordie does not index songs against artists'/composers' will. To remove this song please click here.

This song is displayed as text-only. Transposing and tuning is only available for chordpro-songs.

Login - add to songbook

Rating click stars to rate

Layout
Accuracy

SHARE PAGE  




You need to log in to post comments