Chordie logo

We're a Happy Family    Anthrax



Tabbed by Micah Geertson

Anthrax: We've Come For You All - We're A Happy Family (cover)

Riff 1
E---------------------
B---------------------
G---------------------
D---------------------
A---5-3-888888--------
E---3-1-666666--------    X4

Riff 2
E------------------------------
B------------------------------
G------------------------------
D------------------------------
A---4444-9-7-555555-10-8-------
E---2222-7-5-333333-8--6-------  X2

Riff 3 (Chorus)
E----------------------------------------
B----------------------------------------
G----------------------------------------
D----------------------------------------
A--4444-8888-4444-10101010-4444-8888-----
E--2222-6666-2222-8888-----2222-6666-----  X4


Order (full song):
Riff 1 x4
Riff 2 x2
Riff 3 x4
Riff 1 x4
Riff 2 x2
Riff 3 x4
Riff 1 x4
Riff 2 x2
Riff 3 x4
Riff 1 x4

*NOTE* the 10101010 in riff 3  is not 1 0 1 0... its 10 10 10 10


Important: The song above is NOT stored on the Chordie server. The original song is hosted at www.xguitar.com. Chordie works as a search engine and provides on-the-fly formatting. Chordie does not index songs against artists/composers will. To remove this song please click here.

This song is displayed as text-only. Transposing and tuning is only available for chordpro-songs.

Login - add to songbook

Rating click stars to rate

Layout
Accuracy

SHARE PAGE  

You need to log in to post comments