Guitar Tabs, Chords and Lyrics


I Can't Stand Being With You    Anti Flag



Intro: X4 
e|-----------------------------------------------------------------------------| 
B|-----------------------------------------------------------------------------| 
G|------------5-5-5-5----------------------------------------------------------| 
D|-2-2-2-2-2--5-5-5-5--5-5-5---------------------------------------------------| 
A|-2-2-2-2-2--3-3-3-3--5-5-5---------------------------------------------------| 
E|-0-0-0-0-0-----------3-3-3---------------------------------------------------| 

Verse: X2 
e|----------X3-----------|----------------------------------------------------| 
B|-----------------------|----------------------------------------------------| 
G|--/-Mute-\--5-5-5------|-4-4-4-4-4-4-4-4-4-4-4-4----------------------------| 
D|-2-222222---5-5-5--5-5-|-4-4-4-4-4-4-4-4-4-4-4-4----------------------------| 
A|-2-222222---3-3-3--5-5-|-2-2-2-2-2-2-2-2-2-2-2-2----------------------------| 
E|-0-000000----------3-3-|----------------------------------------------------| 

Chorus: 
e|--------------X2----------------------|---------------------------------------| 
B|--------------------------------------|---------------------------------------| 
G|-9-9-9-9-9-9---------------5-----7----|-9-9-9-9-9-9---------------5-5-5-5-5-5-| 
D|-9-9-9-9-9-9--7-7-7-7-7-7--5--5--7--7-|-9-9-9-9-9-9--7-7-7-7-7-7--5-5-5-5-5-5-| 
A|-7-7-7-7-7-7--7-7-7-7-7-7--3--5--5--7-|-7-7-7-7-7-7--7-7-7-7-7-7--3-3-3-3-3-3-| 
E|--------------5-5-5-5-5-5-----3-----5-|--------------5-5-5-5-5-5--------------| 

e|-------------|-----------------------------| 
B|-------------|-----------------------------| 
G|-------------|-9-9-9-9-9-9-----------------| 
D|-5-5-5-5-5-5-|-9-9-9-9-9-9--7-7-7-7-7-7----| 
A|-5-5-5-5-5-5-|-7-7-7-7-7-7--7-7-7-7-7-7----| 
E|-3-3-3-3-3-3-|--------------5-5-5-5-5-5----| 

Verse 

Chorus 

Bridge: /-Slide Down 
e|---------------------------------------------------------------------------| 
B|-5--7-5---------------------------5--7-5-----------------------------------| 
G|--4-------5-5-5-5-5--5-5-5-5-5-----4-------7-7-7-7-7--7-7-7-7-7------------| 
D|/--X2--\--5-5-5-5-5--5-5-5-5-5---/--X2--\--7-7-7-7-7--7-7-7-7-7------------| 
A|----------3-3-3-3-3--3-3-3-3-3-------------5-5-5-5-5--5-5-5-5-5------------| 
E|---------------------------------------------------------------------------| 

e|---------------------------------------------------------------------------| 
B|-5--7-5---------------------------5v-5v-5v----------5/---------------------| 
G|--4--------7-7-7-7-7-----------------------7v-7v-7v------------------------| 
D|/---X2--\--7-7-7-7-7--7-7-7-7-7--------------------------------------------| 
A|-----------5-5-5-5-5--7-7-7-7-7--------------------------------------------| 
E|----------------------5-5-5-5-5--------------------------------------------|


Important: The song above is NOT stored on the Chordie server. The original song is hosted at www.xguitar.com. Chordie works as a search engine and provides on-the-fly formatting. Chordie does not index songs against artists'/composers' will. To remove this song please click here.

This song is displayed as text-only. Transposing and tuning is only available for chordpro-songs.

Login - add to songbook

Rating click stars to rate

Layout
Accuracy

SHARE PAGE  




You need to log in to post comments